  0
SECTION
  2
HEADER
  9
$ACADVER
  1
AC1015
  9
$ACADMAINTVER
 70
    20
  9
$DWGCODEPAGE
  3
ANSI_1252
  9
$INSBASE
 10
0.0
 20
0.0
 30
0.0
  9
$EXTMIN
 10
167.3297240818015
 20
-19.43411935993777
 30
0.0
  9
$EXTMAX
 10
275.0656433079307
 20
64.33905656536126
 30
0.0
  9
$LIMMIN
 10
0.0
 20
0.0
  9
$LIMMAX
 10
12.0
 20
9.0
  9
$ORTHOMODE
 70
     0
  9
$REGENMODE
 70
     1
  9
$FILLMODE
 70
     1
  9
$QTEXTMODE
 70
     0
  9
$MIRRTEXT
 70
     0
  9
$LTSCALE
 40
1.0
  9
$ATTMODE
 70
     1
  9
$TEXTSIZE
 40
0.75
  9
$TRACEWID
 40
0.05
  9
$TEXTSTYLE
  7
SWTSTEXT
  9
$CLAYER
  8
0
  9
$CELTYPE
  6
BYLAYER
  9
$CECOLOR
 62
   256
  9
$CELTSCALE
 40
1.0
  9
$DISPSILH
 70
     0
  9
$DIMSCALE
 40
8.0
  9
$DIMASZ
 40
0.125
  9
$DIMEXO
 40
0.0
  9
$DIMDLI
 40
0.375
  9
$DIMRND
 40
0.0
  9
$DIMDLE
 40
0.0
  9
$DIMEXE
 40
0.125
  9
$DIMTP
 40
0.0
  9
$DIMTM
 40
0.0
  9
$DIMTXT
 40
0.125
  9
$DIMCEN
 40
0.1875
  9
$DIMTSZ
 40
0.0
  9
$DIMTOL
 70
     0
  9
$DIMLIM
 70
     0
  9
$DIMTIH
 70
     1
  9
$DIMTOH
 70
     0
  9
$DIMSE1
 70
     0
  9
$DIMSE2
 70
     0
  9
$DIMTAD
 70
     1
  9
$DIMZIN
 70
     3
  9
$DIMBLK
  1

  9
$DIMASO
 70
     1
  9
$DIMSHO
 70
     1
  9
$DIMPOST
  1

  9
$DIMAPOST
  1

  9
$DIMALT
 70
     0
  9
$DIMALTD
 70
     1
  9
$DIMALTF
 40
25.4
  9
$DIMLFAC
 40
1.0
  9
$DIMTOFL
 70
     0
  9
$DIMTVP
 40
0.0
  9
$DIMTIX
 70
     0
  9
$DIMSOXD
 70
     0
  9
$DIMSAH
 70
     1
  9
$DIMBLK1
  1
OBLIQUE
  9
$DIMBLK2
  1
OBLIQUE
  9
$DIMSTYLE
  2
SCADARCH
  9
$DIMCLRD
 70
   256
  9
$DIMCLRE
 70
   256
  9
$DIMCLRT
 70
   256
  9
$DIMTFAC
 40
1.0
  9
$DIMGAP
 40
0.125
  9
$DIMJUST
 70
     0
  9
$DIMSD1
 70
     0
  9
$DIMSD2
 70
     0
  9
$DIMTOLJ
 70
     1
  9
$DIMTZIN
 70
     3
  9
$DIMALTZ
 70
     3
  9
$DIMALTTZ
 70
     3
  9
$DIMUPT
 70
     0
  9
$DIMDEC
 70
     4
  9
$DIMTDEC
 70
     4
  9
$DIMALTU
 70
     4
  9
$DIMALTTD
 70
     1
  9
$DIMTXSTY
  7
SWTSTEXT
  9
$DIMAUNIT
 70
     0
  9
$DIMADEC
 70
     0
  9
$DIMALTRND
 40
0.0
  9
$DIMAZIN
 70
     0
  9
$DIMDSEP
 70
    46
  9
$DIMATFIT
 70
     3
  9
$DIMFRAC
 70
     2
  9
$DIMLDRBLK
  1
OBLIQUE
  9
$DIMLUNIT
 70
     4
  9
$DIMLWD
 70
    -2
  9
$DIMLWE
 70
    -2
  9
$DIMTMOVE
 70
     2
  9
$LUNITS
 70
     4
  9
$LUPREC
 70
     6
  9
$SKETCHINC
 40
0.1
  9
$FILLETRAD
 40
0.0
  9
$AUNITS
 70
     0
  9
$AUPREC
 70
     0
  9
$MENU
  1
.
  9
$ELEVATION
 40
0.0
  9
$PELEVATION
 40
0.0
  9
$THICKNESS
 40
0.0
  9
$LIMCHECK
 70
     0
  9
$CHAMFERA
 40
0.0
  9
$CHAMFERB
 40
0.0
  9
$CHAMFERC
 40
1.0
  9
$CHAMFERD
 40
0.0
  9
$SKPOLY
 70
     0
  9
$TDCREATE
 40
2451557.449502315
  9
$TDUCREATE
 40
2451557.782835648
  9
$TDUPDATE
 40
2456274.708503322
  9
$TDUUPDATE
 40
2456275.041836655
  9
$TDINDWG
 40
0.9600555903
  9
$TDUSRTIMER
 40
0.9600555903
  9
$USRTIMER
 70
     1
  9
$ANGBASE
 50
0.0
  9
$ANGDIR
 70
     0
  9
$PDMODE
 70
     0
  9
$PDSIZE
 40
-5.0
  9
$PLINEWID
 40
0.0
  9
$SPLFRAME
 70
     0
  9
$SPLINETYPE
 70
     6
  9
$SPLINESEGS
 70
    32
  9
$HANDSEED
  5
4A20
  9
$SURFTAB1
 70
     6
  9
$SURFTAB2
 70
     6
  9
$SURFTYPE
 70
     6
  9
$SURFU
 70
     6
  9
$SURFV
 70
     6
  9
$UCSBASE
  2

  9
$UCSNAME
  2

  9
$UCSORG
 10
182.5192679597097
 20
11.91676800278594
 30
0.0
  9
$UCSXDIR
 10
1.0
 20
0.0
 30
0.0
  9
$UCSYDIR
 10
0.0
 20
1.0
 30
0.0
  9
$UCSORTHOREF
  2

  9
$UCSORTHOVIEW
 70
     0
  9
$UCSORGTOP
 10
0.0
 20
0.0
 30
0.0
  9
$UCSORGBOTTOM
 10
0.0
 20
0.0
 30
0.0
  9
$UCSORGLEFT
 10
0.0
 20
0.0
 30
0.0
  9
$UCSORGRIGHT
 10
0.0
 20
0.0
 30
0.0
  9
$UCSORGFRONT
 10
0.0
 20
0.0
 30
0.0
  9
$UCSORGBACK
 10
0.0
 20
0.0
 30
0.0
  9
$PUCSBASE
  2

  9
$PUCSNAME
  2

  9
$PUCSORG
 10
0.0
 20
0.0
 30
0.0
  9
$PUCSXDIR
 10
1.0
 20
0.0
 30
0.0
  9
$PUCSYDIR
 10
0.0
 20
1.0
 30
0.0
  9
$PUCSORTHOREF
  2

  9
$PUCSORTHOVIEW
 70
     0
  9
$PUCSORGTOP
 10
0.0
 20
0.0
 30
0.0
  9
$PUCSORGBOTTOM
 10
0.0
 20
0.0
 30
0.0
  9
$PUCSORGLEFT
 10
0.0
 20
0.0
 30
0.0
  9
$PUCSORGRIGHT
 10
0.0
 20
0.0
 30
0.0
  9
$PUCSORGFRONT
 10
0.0
 20
0.0
 30
0.0
  9
$PUCSORGBACK
 10
0.0
 20
0.0
 30
0.0
  9
$USERI1
 70
     0
  9
$USERI2
 70
     0
  9
$USERI3
 70
     0
  9
$USERI4
 70
     0
  9
$USERI5
 70
     0
  9
$USERR1
 40
0.0
  9
$USERR2
 40
0.0
  9
$USERR3
 40
0.0
  9
$USERR4
 40
0.0
  9
$USERR5
 40
0.0
  9
$WORLDVIEW
 70
     1
  9
$SHADEDGE
 70
     3
  9
$SHADEDIF
 70
    70
  9
$TILEMODE
 70
     1
  9
$MAXACTVP
 70
    48
  9
$PINSBASE
 10
0.0
 20
0.0
 30
0.0
  9
$PLIMCHECK
 70
     0
  9
$PEXTMIN
 10
-19.52890750236171
 20
-45.690400130809
 30
0.0
  9
$PEXTMAX
 10
66.90942319586646
 20
22.73872795750724
 30
0.0
  9
$PLIMMIN
 10
0.0
 20
0.0
  9
$PLIMMAX
 10
12.0
 20
9.0
  9
$UNITMODE
 70
     0
  9
$VISRETAIN
 70
     1
  9
$PLINEGEN
 70
     0
  9
$PSLTSCALE
 70
     1
  9
$TREEDEPTH
 70
  3020
  9
$CMLSTYLE
  2
STANDARD
  9
$CMLJUST
 70
     0
  9
$CMLSCALE
 40
1.0
  9
$PROXYGRAPHICS
 70
     1
  9
$MEASUREMENT
 70
     0
  9
$CELWEIGHT
370
    -1
  9
$ENDCAPS
280
     0
  9
$JOINSTYLE
280
     0
  9
$LWDISPLAY
290
     0
  9
$INSUNITS
 70
     0
  9
$HYPERLINKBASE
  1

  9
$STYLESHEET
  1

  9
$XEDIT
290
     1
  9
$CEPSNTYPE
380
     0
  9
$PSTYLEMODE
290
     1
  9
$FINGERPRINTGUID
  2
{5110CC66-5F1E-11D4-8621-95C6F6801C19}
  9
$VERSIONGUID
  2
{C169E90F-3027-46C2-8C12-A9799196A6A7}
  9
$EXTNAMES
290
     1
  9
$PSVPSCALE
 40
0.0
  9
$OLESTARTUP
290
     0
  0
ENDSEC
  0
SECTION
  2
CLASSES
  0
CLASS
  1
DICTIONARYVAR
  2
AcDbDictionaryVar
  3
ObjectDBX Classes
 90
        0
280
     0
281
     0
  0
CLASS
  1
ACMESTATEMGR
  2
AcMeStateMgr
  3
AcMeServices
 90
    32768
280
     1
281
     0
  0
CLASS
  1
ACMESCOPE
  2
AcMeScope
  3
AcMeServices
 90
    32768
280
     1
281
     0
  0
CLASS
  1
ACMECOMMANDHISTORY
  2
AcMeCommandHistory
  3
AcMeServices
 90
    32768
280
     1
281
     0
  0
CLASS
  1
ACRFINSADJUSTERMGR
  2
AcRfInsAdjusterMgr
  3
AcMeServices
 90
    32768
280
     1
281
     0
  0
CLASS
  1
ACIMSYSVARMAN
  2
AcImSysVarManager
  3
AcMeServices
 90
    32768
280
     1
281
     0
  0
CLASS
  1
ACIMREALSYSVAR
  2
AcImRealSysVar
  3
AcMeServices
 90
    32768
280
     1
281
     0
  0
CLASS
  1
ACIMINTSYSVAR
  2
AcImIntSysVar
  3
AcMeServices
 90
    32768
280
     1
281
     0
  0
CLASS
  1
ACMEDRAWINGMAN
  2
AcMeDrawingMan
  3
AcMeServices
 90
    32768
280
     1
281
     0
  0
CLASS
  1
ACMEVIEW
  2
AcMeView
  3
AcMeServices
 90
    32768
280
     1
281
     0
  0
CLASS
  1
ACDBENTITYCACHE
  2
AcMeEntityCache
  3
AcMeServices
 90
    32768
280
     1
281
     0
  0
CLASS
  1
ACGREFMASTER
  2
AcGrefMaster
  3
AcGrefServices
 90
    32768
280
     1
281
     0
  0
CLASS
  1
AMIMASTER
  2
AmiMaster
  3
AmiServices
 90
    32768
280
     1
281
     0
  0
CLASS
  1
ACASGREFMASTER
  2
AcAsGrefMaster
  3
AutoSurfResolverServices
 90
    32768
280
     1
281
     0
  0
CLASS
  1
ADAPPL
  2
AcAdAppl
  3
DesignerServices
 90
    32768
280
     1
281
     0
  0
CLASS
  1
DEPMGR
  2
AcAdDepMgr
  3
DesignerServices
 90
    32768
280
     1
281
     0
  0
CLASS
  1
PARAMMGR
  2
AcAdParamMgr
  3
DesignerServices
 90
    32768
280
     1
281
     0
  0
CLASS
  1
PARAMSCOPE
  2
AcAdParamScope
  3
DesignerServices
 90
    32768
280
     1
281
     0
  0
CLASS
  1
ACIMSTRSYSVAR
  2
AcImStrSysVar
  3
AcMeServices
 90
    32768
280
     1
281
     0
  0
CLASS
  1
NAMEDAPPL
  2
AcAdNamedAppl
  3
DesignerServices
 90
    32768
280
     1
281
     0
  0
CLASS
  1
ADHNTMPLT
  2
AdHoleNoteTemplateMgr
  3
DesignerServices
 90
    32768
280
     1
281
     0
  0
CLASS
  1
AM_HNTEMPLATE_MGR_NAME
  2
AdHoleNoteTemplateMgrName
  3
DesignerServices
 90
    32768
280
     1
281
     0
  0
CLASS
  1
ACADGREFMODULE
  2
AcAdGrefModule
  3
AdGrefServices
 90
    32768
280
     1
281
     0
  0
CLASS
  1
AM_DRAWING_MGR
  2
AcDmDwgMgr
  3
AcMechDwgViewMgmt
 90
    32768
280
     1
281
     0
  0
CLASS
  1
AM_DWG_DOCUMENT
  2
AcDmDwgDocument
  3
AcMechDwgViewMgmt
 90
    32768
280
     1
281
     0
  0
CLASS
  1
AM_DWG_SHEET
  2
AcDmSheet
  3
AcMechDwgViewMgmt
 90
    32768
280
     1
281
     0
  0
CLASS
  1
AM_VIEWDIMPARMAP
  2
AcDmViewDimParMap
  3
AcMechDwgViewMgmt
 90
    32768
280
     1
281
     0
  0
CLASS
  1
AM_DWGMGR_NAME
  2
AcDmDwgMgrName
  3
AcMechDwgViewMgmt
 90
    32768
280
     1
281
     0
  0
CLASS
  1
ACAMPROJECT
  2
AcAmProject
  3
DesignerAssemblies
 90
    32768
280
     1
281
     0
  0
CLASS
  1
ACAMGRCOMPSET
  2
AcAmGrCompSet
  3
DesignerAssemblies
 90
    32768
280
     1
281
     0
  0
CLASS
  1
ACAMGRCOMPDEFSET
  2
AcAmGrCompDefSet
  3
DesignerAssemblies
 90
    32768
280
     1
281
     0
  0
CLASS
  1
ACAMGRCOMPDEF
  2
AcAmGrCompDef
  3
DesignerAssemblies
 90
    32768
280
     1
281
     0
  0
CLASS
  1
ACCMCONTEXT
  2
AcCmContext
  3
DesignerAssemblies
 90
    32768
280
     1
281
     0
  0
CLASS
  1
ACAMCOMPDEF
  2
AcAmCompDef
  3
DesignerAssemblies
 90
    32768
280
     1
281
     0
  0
CLASS
  1
ACAMCOMPDEFMGR
  2
AcAmCompDefMgr
  3
DesignerAssemblies
 90
    32768
280
     1
281
     0
  0
CLASS
  1
AMCONTEXTMGR
  2
AcAmContextMgr
  3
DesignerAssemblies
 90
    32768
280
     1
281
     0
  0
CLASS
  1
ACAMCONTEXTMODELER
  2
AcAmContextModeler
  3
DesignerAssemblies
 90
    32768
280
     1
281
     0
  0
CLASS
  1
ACMDATADICTIONARY
  2
AcmDataDictionary
  3
"AutoCAD/M"
 90
    32768
280
     1
281
     0
  0
CLASS
  1
ACMDATAENTRYBLOCK
  2
AcmDataEntryBlock
  3
"AutoCAD/M"
 90
    32768
280
     1
281
     0
  0
CLASS
  1
ACDMVIEWGEOM
  2
AcDmViewGeometry
  3
AcMechDwgViewMgmt
 90
    32768
280
     1
281
     1
  0
CLASS
  1
CBROWSERAPPOBJECT
  2
CBrowserAppObject
  3
McadcomServices
 90
    32768
280
     1
281
     0
  0
CLASS
  1
IM_STATIC_MAN
  2
AcImStaticVarManager
  3
AcMeServices
 90
    32768
280
     1
281
     0
  0
CLASS
  1
ASAPP
  2
AcAsAppObject
  3
AutoSurfServices
 90
    32768
280
     1
281
     0
  0
CLASS
  1
ACIMDBLSTATICVAR
  2
AcImDblStaticVar
  3
AcMeServices
 90
    32768
280
     1
281
     0
  0
CLASS
  1
ACIMSTRSTATICVAR
  2
AcImStrStaticVar
  3
AcMeServices
 90
    32768
280
     1
281
     0
  0
CLASS
  1
ACIMINTSTATICVAR
  2
AcImIntStaticVar
  3
AcMeServices
 90
    32768
280
     1
281
     0
  0
CLASS
  1
CATALOGSTATE
  2
AcAmCatalogState
  3
DesignerAssemblies
 90
    32768
280
     1
281
     0
  0
CLASS
  1
DM_PLACEHOLDER
  2
AcDmSelsetPlaceholder
  3
AcMechDwgViewMgmt
 90
    32768
280
     1
281
     0
  0
CLASS
  1
LAYER_INDEX
  2
AcDbLayerIndex
  3
ObjectDBX Classes
 90
    32768
280
     0
281
     0
  0
CLASS
  1
IDBUFFER
  2
AcDbIdBuffer
  3
ObjectDBX Classes
 90
    32768
280
     0
281
     0
  0
CLASS
  1
LWPOLYLINE
  2
AcDbPolyline
  3
ObjectDBX Classes
 90
        0
280
     0
281
     1
  0
CLASS
  1
ACRFATTGENMGR
  2
AcRfAttGeneralMgr
  3
AcGrefServices
 90
    32768
280
     1
281
     0
  0
CLASS
  1
ADPART
  2
AcAdPart
  3
DesignerServices
 90
    32768
280
     1
281
     1
  0
CLASS
  1
ADBASE
  2
AcAdBase
  3
DesignerServices
 90
    32768
280
     1
281
     0
  0
CLASS
  1
BODYID
  2
AcAdBodyId
  3
DesignerServices
 90
    32768
280
     1
281
     0
  0
CLASS
  1
WORKPLANEDISPLAYMGR
  2
AcAdDisplayMgr
  3
DesignerServices
 90
    32768
280
     1
281
     0
  0
CLASS
  1
ACCMBODY
  2
AcCmBody
  3
DesignerAssemblies
 90
    32768
280
     1
281
     0
  0
CLASS
  1
ACAMGRCOMP
  2
AcAmGrComp
  3
DesignerAssemblies
 90
    32768
280
     1
281
     0
  0
CLASS
  1
ACAMCOMPFEEDBACK
  2
AcAmCompFeedback
  3
DesignerAssemblies
 90
    32768
280
     1
281
     0
  0
CLASS
  1
ACAMCOMP
  2
AcAmComp
  3
DesignerAssemblies
 90
    32768
280
     1
281
     0
  0
CLASS
  1
ACAMGRCOMPCLONE
  2
AcAmGrCompClone
  3
DesignerAssemblies
 90
    32768
280
     1
281
     0
  0
CLASS
  1
ACAMCLONEREACTOR
  2
AcAmGrCompCloneReactor
  3
DesignerAssemblies
 90
    32768
280
     1
281
     0
  0
CLASS
  1
ADDATUMPLANEABS
  2
AcAdDatumPlaneAbs
  3
DesignerServices
 90
    32768
280
     1
281
     0
  0
CLASS
  1
ACMELINEARARROW
  2
AcImLinearArrowDisplay
  3
AcMeServices
 90
    32768
280
     1
281
     1
  0
CLASS
  1
ADDATUMAXISABS
  2
AcAdDatumAxisAbs
  3
DesignerServices
 90
    32768
280
     1
281
     0
  0
CLASS
  1
ADDATUMORIENTEDPLANE
  2
AcAdDatumOrientedPlane
  3
DesignerServices
 90
    32768
280
     1
281
     0
  0
CLASS
  1
ACMEPLINE
  2
AcImPlineDisplay
  3
AcMeServices
 90
    32768
280
     1
281
     1
  0
CLASS
  1
ACADCIRCLEACAD
  2
AcAdVirtualCircleAcad
  3
DesignerServices
 90
    32768
280
     1
281
     0
  0
CLASS
  1
ACADREFLINEACAD
  2
AcAdVirtualReferenceLine
  3
DesignerServices
 90
    32768
280
     1
281
     0
  0
CLASS
  1
ACADCONSLINE
  2
AcAdConstrainedLine
  3
DesignerServices
 90
    32768
280
     1
281
     0
  0
CLASS
  1
ACADCONSGROUP
  2
AcAdConstraintGroup
  3
DesignerServices
 90
    32768
280
     1
281
     0
  0
CLASS
  1
ACADCONSCIRCLE
  2
AcAdConstrainedCircle
  3
DesignerServices
 90
    32768
280
     1
281
     0
  0
CLASS
  1
ACADCONSPOINT
  2
AcAdConstrainedPoint
  3
DesignerServices
 90
    32768
280
     1
281
     0
  0
CLASS
  1
ACADIMPPTACAD
  2
AcAdVirtualImplicitPoint
  3
DesignerServices
 90
    32768
280
     1
281
     0
  0
CLASS
  1
ADCTRPTCNS
  2
AcAdCenterPointConstr
  3
DesignerServices
 90
    32768
280
     1
281
     0
  0
CLASS
  1
ADCLPROF2D
  2
AcAdClosedProfile2d
  3
DesignerServices
 90
    32768
280
     1
281
     0
  0
CLASS
  1
PARAM
  2
AcAdParam
  3
DesignerServices
 90
    32768
280
     1
281
     0
  0
CLASS
  1
ADEXTRUSIONBLIND
  2
AcAdExtrusionBlind
  3
DesignerServices
 90
    32768
280
     1
281
     0
  0
CLASS
  1
DEPEDGEFEATUREORDERING
  2
AcAdDepEdgeFeatureOrdering
  3
DesignerServices
 90
    32768
280
     1
281
     0
  0
CLASS
  1
FACEID
  2
AcAdFaceId
  3
DesignerServices
 90
    32768
280
     1
281
     0
  0
CLASS
  1
ADHOLLOWFEAT
  2
AcAdHollowFeat
  3
DesignerServices
 90
    32768
280
     1
281
     0
  0
CLASS
  1
ADPLANEID
  2
AcAdPlaneId
  3
DesignerServices
 90
    32768
280
     1
281
     0
  0
CLASS
  1
DEPEDGESECONDARYDEPID
  2
AcAdDepEdgeSecondaryDepId
  3
DesignerServices
 90
    32768
280
     1
281
     0
  0
CLASS
  1
ADDATUMPLANEFACE
  2
AcAdDatumPlaneFace
  3
DesignerServices
 90
    32768
280
     1
281
     0
  0
CLASS
  1
ADPLANEID
  2
AcAdSurfGeomId
  3
DesignerServices
 90
    32768
280
     1
281
     0
  0
CLASS
  1
ADDATUMAXISCENTER
  2
AcAdDatumAxisCenter
  3
DesignerServices
 90
    32768
280
     1
281
     0
  0
CLASS
  1
ADDATUMPOINTAXISPLANE
  2
AcAdDatumPointAxisPlane
  3
DesignerServices
 90
    32768
280
     1
281
     0
  0
CLASS
  1
ADHOLEFEAT
  2
AcAdHoleFeat
  3
DesignerServices
 90
    32768
280
     1
281
     0
  0
CLASS
  1
ACADLINEACAD
  2
AcAdVirtualBoundedLineAcad
  3
DesignerServices
 90
    32768
280
     1
281
     0
  0
CLASS
  1
ACADARCACAD
  2
AcAdVirtualArcAcad
  3
DesignerServices
 90
    32768
280
     1
281
     0
  0
CLASS
  1
ADPCURCNS
  2
AcAdPointCurveConstr
  3
DesignerServices
 90
    32768
280
     1
281
     0
  0
CLASS
  1
ADVERCNS
  2
AcAdVerticalConstr
  3
DesignerServices
 90
    32768
280
     1
281
     0
  0
CLASS
  1
ADHORCNS
  2
AcAdHorizontalConstr
  3
DesignerServices
 90
    32768
280
     1
281
     0
  0
CLASS
  1
ADTANCNS
  2
AcAdTangentConstr
  3
DesignerServices
 90
    32768
280
     1
281
     0
  0
CLASS
  1
ADEQRADCNS
  2
AcAdEqualRadiusConstr
  3
DesignerServices
 90
    32768
280
     1
281
     0
  0
CLASS
  1
ADPATH2D
  2
AcAdPath2d
  3
DesignerServices
 90
    32768
280
     1
281
     0
  0
CLASS
  1
DATUMPLANEDISPLAY
  2
AcAdDatumPlaneDisplay
  3
DesignerServices
 90
    32768
280
     1
281
     1
  0
CLASS
  1
ADDATUMPLANEXSECT
  2
AcAdDatumPlaneXSect
  3
DesignerServices
 90
    32768
280
     1
281
     0
  0
CLASS
  1
DATUMPOINTDISPLAY
  2
AcAdDatumPointDisplay
  3
DesignerServices
 90
    32768
280
     1
281
     1
  0
CLASS
  1
ADDATUMPOINTPATHSTART
  2
AcAdDatumPointPathStart
  3
DesignerServices
 90
    32768
280
     1
281
     0
  0
CLASS
  1
ADSWEEP
  2
AcAdSweep
  3
DesignerServices
 90
    32768
280
     1
281
     0
  0
CLASS
  1
ACADVIRTUALPOINTDATUMID
  2
AcAdVirtualPointDatumId
  3
DesignerServices
 90
    32768
280
     1
281
     0
  0
CLASS
  1
ADHDISTCNS
  2
AcAdHorizontalDistanceConstr
  3
DesignerServices
 90
    32768
280
     1
281
     0
  0
CLASS
  1
ADRADCNS
  2
AcAdAcadRadiusConstr
  3
DesignerServices
 90
    32768
280
     1
281
     0
  0
CLASS
  1
AGDICTIONARY
  2
AgDictionary
  3
"AccelView"
 90
    32769
280
     1
281
     0
  0
CLASS
  1
ACAMGRBLOCKRECORD
  2
AcAmGrBlockRecord
  3
DesignerAssemblies
 90
    32768
280
     1
281
     0
  0
CLASS
  1
ACAMVIEWREACTOR
  2
AcAmViewReactor
  3
DesignerAssemblies
 90
    32768
280
     1
281
     0
  0
CLASS
  1
AMVIEW
  2
AcAmView
  3
DesignerAssemblies
 90
    32768
280
     1
281
     0
  0
CLASS
  1
ACAMVIEWCONTEXT
  2
AcAmViewContext
  3
DesignerAssemblies
 90
    32768
280
     1
281
     0
  0
CLASS
  1
ACAMCOMPVIEWREACTOR
  2
AcAmGrCompViewReactor
  3
DesignerAssemblies
 90
    32768
280
     1
281
     0
  0
CLASS
  1
ACAMGRCOMPVIEW
  2
AcAmGrCompView
  3
DesignerAssemblies
 90
    32768
280
     1
281
     0
  0
CLASS
  1
ACAMVIEWENTITYFILTER
  2
AcAmViewEntityFilter
  3
DesignerAssemblies
 90
    32768
280
     1
281
     0
  0
CLASS
  1
AM_ABS_PLANE
  2
AcDmAbsPlnDef
  3
AcMechDwgViewMgmt
 90
    32768
280
     1
281
     0
  0
CLASS
  1
AM_ABS_AXIS
  2
AcDmAbsAxisDef
  3
AcMechDwgViewMgmt
 90
    32768
280
     1
281
     0
  0
CLASS
  1
AM_BASE_VIEW_ORIENT
  2
AcDmBaseViewOr
  3
AcMechDwgViewMgmt
 90
    32768
280
     1
281
     0
  0
CLASS
  1
AM_DWG_VIEWPORT
  2
AcDmViewport
  3
AcMechDwgViewMgmt
 90
    32768
280
     1
281
     0
  0
CLASS
  1
AM_VIEW_DISPLAY
  2
AcDmDwgViewDisplay
  3
AcMechDwgViewMgmt
 90
    32768
280
     1
281
     0
  0
CLASS
  1
AM_BASE_VIEW
  2
AcDmBaseView
  3
AcMechDwgViewMgmt
 90
    32768
280
     1
281
     0
  0
CLASS
  1
ACDMVWEDARC
  2
AcDmViewEdgeArc
  3
AcMechDwgViewMgmt
 90
    32768
280
     1
281
     1
  0
CLASS
  1
ACDMVWEDCIRC
  2
AcDmViewEdgeCircle
  3
AcMechDwgViewMgmt
 90
    32768
280
     1
281
     1
  0
CLASS
  1
ACDMVWEDLINE
  2
AcDmViewEdgeLine
  3
AcMechDwgViewMgmt
 90
    32768
280
     1
281
     1
  0
CLASS
  1
AM_ISO_VIEW_ORIENT
  2
AcDmIsoViewOr
  3
AcMechDwgViewMgmt
 90
    32768
280
     1
281
     0
  0
CLASS
  1
AM_ISO_VIEW
  2
AcDmIsoView
  3
AcMechDwgViewMgmt
 90
    32768
280
     1
281
     0
  0
CLASS
  1
ACDMVWEDSPLINE
  2
AcDmViewEdgeSpline
  3
AcMechDwgViewMgmt
 90
    32768
280
     1
281
     1
  0
CLASS
  1
ACDBDICTIONARYWDFLT
  2
AcDbDictionaryWithDefault
  3
ObjectDBX Classes
 90
        0
280
     1
281
     0
  0
CLASS
  1
ACDBPLACEHOLDER
  2
AcDbPlaceHolder
  3
ObjectDBX Classes
 90
        0
280
     0
281
     0
  0
CLASS
  1
LAYOUT
  2
AcDbLayout
  3
ObjectDBX Classes
 90
        0
280
     0
281
     0
  0
CLASS
  1
RASTERVARIABLES
  2
AcDbRasterVariables
  3
ISM
 90
        0
280
     0
281
     0
  0
CLASS
  1
IMAGEDEF
  2
AcDbRasterImageDef
  3
ISM
 90
    32768
280
     0
281
     0
  0
CLASS
  1
IMAGEDEF_REACTOR
  2
AcDbRasterImageDefReactor
  3
ISM
 90
    32769
280
     0
281
     0
  0
CLASS
  1
IMAGE
  2
AcDbRasterImage
  3
ISM
 90
    34943
280
     0
281
     1
  0
CLASS
  1
SORTENTSTABLE
  2
AcDbSortentsTable
  3
ObjectDBX Classes
 90
        0
280
     0
281
     0
  0
CLASS
  1
LONG_TRANSACTION
  2
AcDbLongTransaction
  3
ObjectDBX Classes
 90
    32768
280
     0
281
     0
  0
CLASS
  1
LWPOLYLINE
  2
AcDbPolyline
  3
ObjectDBX Classes
 90
        0
280
     0
281
     1
  0
CLASS
  1
HATCH
  2
AcDbHatch
  3
ObjectDBX Classes
 90
    32768
280
     0
281
     1
  0
CLASS
  1
XRECORD
  2
AcDbXrecord
  3
ObjectDBX Classes
 90
        0
280
     0
281
     0
  0
CLASS
  1
LONG_TRANSACTION
  2
AcDbLongTransaction
  3
ObjectDBX Classes
 90
    32768
280
     0
281
     0
  0
CLASS
  1
LWPOLYLINE
  2
AcDbPolyline
  3
ObjectDBX Classes
 90
        0
280
     0
281
     1
  0
CLASS
  1
HATCH
  2
AcDbHatch
  3
ObjectDBX Classes
 90
    32768
280
     0
281
     1
  0
CLASS
  1
XRECORD
  2
AcDbXrecord
  3
ObjectDBX Classes
 90
        0
280
     0
281
     0
  0
CLASS
  1
LONG_TRANSACTION
  2
AcDbLongTransaction
  3
ObjectDBX Classes
 90
    32768
280
     0
281
     0
  0
CLASS
  1
LWPOLYLINE
  2
AcDbPolyline
  3
ObjectDBX Classes
 90
        0
280
     0
281
     1
  0
CLASS
  1
HATCH
  2
AcDbHatch
  3
ObjectDBX Classes
 90
    32768
280
     0
281
     1
  0
CLASS
  1
XRECORD
  2
AcDbXrecord
  3
ObjectDBX Classes
 90
        0
280
     0
281
     0
  0
CLASS
  1
LONG_TRANSACTION
  2
AcDbLongTransaction
  3
ObjectDBX Classes
 90
    32768
280
     0
281
     0
  0
CLASS
  1
LWPOLYLINE
  2
AcDbPolyline
  3
ObjectDBX Classes
 90
        0
280
     0
281
     1
  0
CLASS
  1
HATCH
  2
AcDbHatch
  3
ObjectDBX Classes
 90
    32768
280
     0
281
     1
  0
CLASS
  1
XRECORD
  2
AcDbXrecord
  3
ObjectDBX Classes
 90
        0
280
     0
281
     0
  0
CLASS
  1
LONG_TRANSACTION
  2
AcDbLongTransaction
  3
ObjectDBX Classes
 90
    32768
280
     0
281
     0
  0
CLASS
  1
LWPOLYLINE
  2
AcDbPolyline
  3
ObjectDBX Classes
 90
        0
280
     0
281
     1
  0
CLASS
  1
HATCH
  2
AcDbHatch
  3
ObjectDBX Classes
 90
    32768
280
     0
281
     1
  0
CLASS
  1
XRECORD
  2
AcDbXrecord
  3
ObjectDBX Classes
 90
        0
280
     0
281
     0
  0
CLASS
  1
TABLESTYLE
  2
AcDbTableStyle
  3
ObjectDBX Classes
 90
     4095
280
     0
281
     0
  0
CLASS
  1
ACAD_PROXY_OBJECT_WRAPPER
  2
AcDbProxyObjectWrapper
  3
ObjectDBX Classes
 90
        0
280
     0
281
     0
  0
CLASS
  1
MATERIAL
  2
AcDbMaterial
  3
ObjectDBX Classes
 90
     1153
280
     0
281
     0
  0
CLASS
  1
VISUALSTYLE
  2
AcDbVisualStyle
  3
ObjectDBX Classes
 90
     4095
280
     0
281
     0
  0
CLASS
  1
SCALE
  2
AcDbScale
  3
ObjectDBX Classes
 90
     1153
280
     0
281
     0
  0
CLASS
  1
MLEADERSTYLE
  2
AcDbMLeaderStyle
  3
ACDB_MLEADERSTYLE_CLASS
 90
     4095
280
     0
281
     0
  0
CLASS
  1
EXACXREFPANELOBJECT
  2
ExAcXREFPanelObject
  3
EXAC_ESW
 90
     1025
280
     0
281
     0
  0
CLASS
  1
NPOCOLLECTION
  2
AcDbImpNonPersistentObjectsCollection
  3
ObjectDBX Classes
 90
     1153
280
     0
281
     0
  0
CLASS
  1
CELLSTYLEMAP
  2
AcDbCellStyleMap
  3
ObjectDBX Classes
 90
     1152
280
     0
281
     0
  0
ENDSEC
  0
SECTION
  2
TABLES
  0
TABLE
  2
VPORT
  5
17
330
0
100
AcDbSymbolTable
 70
     1
  0
VPORT
  5
49B3
330
17
100
AcDbSymbolTableRecord
100
AcDbViewportTableRecord
  2
*ACTIVE
 70
     0
 10
0.0
 20
0.0
 11
1.0
 21
1.0
 12
246.2714677862266
 22
22.45216776142582
 13
0.0
 23
0.0
 14
0.0625
 24
0.0625
 15
0.5
 25
0.5
 16
0.0
 26
0.0
 36
1.0
 17
0.0
 27
0.0
 37
0.0
 40
84.43310750049795
 41
1.322769953051643
 42
50.0
 43
0.0
 44
0.0
 50
0.0
 51
0.0
 71
     0
 72
 20000
 73
     1
 74
     1
 75
     0
 76
     0
 77
     0
 78
     0
281
     0
 65
     1
110
182.5192679597097
120
11.91676800278594
130
0.0
111
1.0
121
0.0
131
0.0
112
0.0
122
1.0
132
0.0
 79
     0
146
0.0
  0
ENDTAB
  0
TABLE
  2
LTYPE
  5
12
330
0
100
AcDbSymbolTable
 70
     1
  0
LTYPE
  5
13
330
12
100
AcDbSymbolTableRecord
100
AcDbLinetypeTableRecord
  2
BYBLOCK
 70
     0
  3

 72
    65
 73
     0
 40
0.0
  0
LTYPE
  5
14
330
12
100
AcDbSymbolTableRecord
100
AcDbLinetypeTableRecord
  2
BYLAYER
 70
     0
  3

 72
    65
 73
     0
 40
0.0
  0
LTYPE
  5
8
330
12
100
AcDbSymbolTableRecord
100
AcDbLinetypeTableRecord
  2
CONTINUOUS
 70
     0
  3
Solid line
 72
    65
 73
     0
 40
0.0
  0
ENDTAB
  0
TABLE
  2
LAYER
  5
F
102
{ACAD_XDICTIONARY
360
13C
102
}
330
0
100
AcDbSymbolTable
 70
     5
  0
LAYER
  5
7
102
{ACAD_XDICTIONARY
360
4A07
102
}
330
F
100
AcDbSymbolTableRecord
100
AcDbLayerTableRecord
  2
0
 70
     0
 62
     7
  6
CONTINUOUS
370
    -3
390
88
1001
RAK
1000
{AU466
1070
     0
1070
     7
1000
CONTINUOUS
1070
     1
1071
       -3
1071
        1
1005
88
1000
AU466}
  0
LAYER
  5
2D
102
{ACAD_XDICTIONARY
360
4A09
102
}
330
F
100
AcDbSymbolTableRecord
100
AcDbLayerTableRecord
  2
R-SWTS-DET1
 70
     0
 62
     1
  6
CONTINUOUS
370
    -3
390
88
1001
RAK
1000
{AU466
1070
     0
1070
     1
1000
CONTINUOUS
1071
       -3
1071
        1
1005
88
1000
AU466}
  0
LAYER
  5
22
102
{ACAD_XDICTIONARY
360
4A0B
102
}
330
F
100
AcDbSymbolTableRecord
100
AcDbLayerTableRecord
  2
R-ANNO-TEXT
 70
     0
 62
     6
  6
CONTINUOUS
370
    -3
390
88
1001
RAK
1000
{AU466
1070
     0
1070
     6
1000
CONTINUOUS
1071
       -3
1071
        1
1005
88
1000
AU466}
  0
LAYER
  5
CE
102
{ACAD_XDICTIONARY
360
4A0D
102
}
330
F
100
AcDbSymbolTableRecord
100
AcDbLayerTableRecord
  2
R-SWTS-DET2
 70
     0
 62
     4
  6
CONTINUOUS
370
    -3
390
88
1001
RAK
1000
{AU466
1070
     0
1070
     4
1000
CONTINUOUS
1071
       -3
1071
        1
1005
88
1000
AU466}
  0
LAYER
  5
D1
102
{ACAD_XDICTIONARY
360
4A0F
102
}
330
F
100
AcDbSymbolTableRecord
100
AcDbLayerTableRecord
  2
R-SWTS-PAT1
 70
     0
 62
     5
  6
CONTINUOUS
370
    -3
390
88
1001
RAK
1000
{AU466
1070
     0
1070
     5
1000
CONTINUOUS
1071
       -3
1071
        1
1005
88
1000
AU466}
  0
ENDTAB
  0
TABLE
  2
STYLE
  5
10
330
0
100
AcDbSymbolTable
 70
     2
  0
STYLE
  5
11
330
10
100
AcDbSymbolTableRecord
100
AcDbTextStyleTableRecord
  2
STANDARD
 70
     0
 40
0.0
 41
1.0
 50
0.0
 71
     0
 42
0.2
  3
txt
  4

  0
STYLE
  5
23
330
10
100
AcDbSymbolTableRecord
100
AcDbTextStyleTableRecord
  2
SWTSTEXT
 70
     0
 40
0.0
 41
1.0
 50
0.0
 71
     0
 42
0.75
  3
simplex.shx
  4

  0
ENDTAB
  0
TABLE
  2
VIEW
  5
15
330
0
100
AcDbSymbolTable
 70
     0
  0
ENDTAB
  0
TABLE
  2
UCS
  5
16
330
0
100
AcDbSymbolTable
 70
     0
  0
ENDTAB
  0
TABLE
  2
APPID
  5
19
330
0
100
AcDbSymbolTable
 70
     5
  0
APPID
  5
1A
330
19
100
AcDbSymbolTableRecord
100
AcDbRegAppTableRecord
  2
ACAD
 70
     0
  0
APPID
  5
13B
330
19
100
AcDbSymbolTableRecord
100
AcDbRegAppTableRecord
  2
AcAecLayerStandard
 70
     0
  0
APPID
  5
1DD
330
19
100
AcDbSymbolTableRecord
100
AcDbRegAppTableRecord
  2
ACAD_DSTYLE_DIMTEXT_FILL
 70
     0
  0
APPID
  5
35B
330
19
100
AcDbSymbolTableRecord
100
AcDbRegAppTableRecord
  2
RAK
 70
     0
  0
APPID
  5
4A02
330
19
100
AcDbSymbolTableRecord
100
AcDbRegAppTableRecord
  2
ACAD_MLEADERVER
 70
     0
  0
ENDTAB
  0
TABLE
  2
DIMSTYLE
  5
1B
330
0
100
AcDbSymbolTable
 70
     1
100
AcDbDimStyleTable
 71
     0
  0
DIMSTYLE
105
25
330
1B
100
AcDbSymbolTableRecord
100
AcDbDimStyleTableRecord
  2
SCADARCH
 70
     0
 40
8.0
 41
0.125
 42
0.0
 43
0.375
 44
0.125
 74
     0
 77
     1
 78
     3
140
0.125
141
0.1875
147
0.125
171
     1
173
     1
176
   256
177
   256
178
   256
273
     4
274
     1
276
     2
277
     4
279
     2
284
     3
285
     3
286
     3
340
23
341
28
343
28
344
28
  0
ENDTAB
  0
TABLE
  2
BLOCK_RECORD
  5
1
330
0
100
AcDbSymbolTable
 70
     1
  0
BLOCK_RECORD
  5
2
102
{ACAD_XDICTIONARY
360
3
102
}
330
1
100
AcDbSymbolTableRecord
100
AcDbBlockTableRecord
  2
*MODEL_SPACE
340
8B
  0
BLOCK_RECORD
  5
A
102
{ACAD_XDICTIONARY
360
B
102
}
330
1
100
AcDbSymbolTableRecord
100
AcDbBlockTableRecord
  2
*PAPER_SPACE
340
8C
  0
BLOCK_RECORD
  5
28
330
1
100
AcDbSymbolTableRecord
100
AcDbBlockTableRecord
  2
_OBLIQUE
340
0
  0
ENDTAB
  0
ENDSEC
  0
SECTION
  2
BLOCKS
  0
BLOCK
  5
6
330
2
100
AcDbEntity
  8
0
100
AcDbBlockBegin
  2
*MODEL_SPACE
 70
     0
 10
0.0
 20
0.0
 30
0.0
  3
*MODEL_SPACE
  1

  0
ENDBLK
  5
9
330
2
100
AcDbEntity
  8
0
100
AcDbBlockEnd
  0
BLOCK
  5
D
330
A
100
AcDbEntity
 67
     1
  8
0
100
AcDbBlockBegin
  2
*PAPER_SPACE
 70
     0
 10
0.0
 20
0.0
 30
0.0
  3
*PAPER_SPACE
  1

  0
ENDBLK
  5
E
330
A
100
AcDbEntity
 67
     1
  8
0
100
AcDbBlockEnd
  0
BLOCK
  5
2A
330
28
100
AcDbEntity
  8
0
100
AcDbBlockBegin
  2
_OBLIQUE
 70
     0
 10
0.0
 20
0.0
 30
0.0
  3
_OBLIQUE
  1

  0
LINE
  5
29
330
28
100
AcDbEntity
  8
0
  6
ByBlock
 62
     0
100
AcDbLine
 10
-0.5
 20
-0.5
 30
0.0
 11
0.5
 21
0.5
 31
0.0
  0
ENDBLK
  5
2B
330
28
100
AcDbEntity
  8
0
100
AcDbBlockEnd
  0
ENDSEC
  0
SECTION
  2
ENTITIES
  0
LINE
  5
6C6
330
2
100
AcDbEntity
  8
R-SWTS-DET1
100
AcDbLine
 10
215.24277705049
 20
0.3979007356709694
 30
0.0
 11
173.8233612904289
 21
19.71209150089314
 31
0.0
  0
LINE
  5
6C7
330
2
100
AcDbEntity
  8
R-SWTS-DET1
100
AcDbLine
 10
215.24277705049
 20
0.3979007356709694
 30
0.0
 11
215.24277705049
 21
1.935400735670988
 31
0.0
  0
LINE
  5
6C8
330
2
100
AcDbEntity
  8
R-SWTS-DET1
100
AcDbLine
 10
215.24277705049
 20
1.935400735670981
 30
0.0
 11
173.8233612904289
 21
21.24959150089312
 31
0.0
  0
LINE
  5
6C9
330
2
100
AcDbEntity
  8
R-SWTS-DET1
100
AcDbLine
 10
173.8233612904289
 20
19.71209150089314
 30
0.0
 11
173.8233612904289
 21
21.24959150089312
 31
0.0
  0
LINE
  5
6CA
330
2
100
AcDbEntity
  8
R-SWTS-DET1
100
AcDbLine
 10
173.8233612904289
 20
21.24959150089312
 30
0.0
 11
180.4065714862683
 21
25.47996874191053
 31
0.0
  0
LINE
  5
6CC
330
2
100
AcDbEntity
  8
R-SWTS-DET1
100
AcDbLine
 10
242.2756725683259
 20
20.60289996291951
 30
0.0
 11
231.267431610032
 21
26.59472731996563
 31
0.0
  0
LWPOLYLINE
  5
6CD
330
2
100
AcDbEntity
  8
R-SWTS-DET1
100
AcDbPolyline
 90
        4
 70
     0
 43
0.0
 10
215.24277705049
 20
0.3979007356709694
 42
-0.0435205076198584
 10
223.4482667545401
 20
5.162371509028904
 42
0.0169523761840223
 10
232.7734567234619
 20
10.00846687651899
 42
0.1475915235260869
 10
242.275672568326
 20
19.06539996291948
 42
-2.230771545017567
  0
LINE
  5
6CE
330
2
100
AcDbEntity
  8
R-SWTS-DET1
100
AcDbLine
 10
242.2756725683259
 20
20.60289996291951
 30
0.0
 11
242.2756725683259
 21
19.06539996291948
 31
0.0
  0
LWPOLYLINE
  5
6CF
330
2
100
AcDbEntity
  8
R-SWTS-DET1
100
AcDbPolyline
 90
        4
 70
     0
 43
0.0
 10
215.24277705049
 20
1.935400735670953
 42
-0.0435205076198584
 10
223.4482667545401
 20
6.699871509028898
 42
0.0169523761840223
 10
232.7734567234619
 20
11.54596687651899
 42
0.1475915235260869
 10
242.275672568326
 20
20.60289996291947
 42
-2.230771545017567
  0
LINE
  5
9D3
330
2
100
AcDbEntity
  8
R-SWTS-DET1
100
AcDbLine
 10
202.9193448881714
 20
11.56344709961564
 30
0.0
 11
231.6831977583559
 21
26.87162383333328
 31
0.0
  0
LINE
  5
9D4
330
2
100
AcDbEntity
  8
R-SWTS-DET1
100
AcDbLine
 10
202.9345424151372
 20
12.5401355953241
 30
0.0
 11
231.6983952853216
 21
27.84831232904169
 31
0.0
  0
LINE
  5
9D5
330
2
100
AcDbEntity
  8
R-SWTS-DET1
100
AcDbLine
 10
202.9193448881714
 20
11.56344709961564
 30
0.0
 11
201.1322791935405
 21
12.39676951864807
 31
0.0
  0
LINE
  5
9D6
330
2
100
AcDbEntity
  8
R-SWTS-DET1
100
AcDbLine
 10
202.585188357535
 20
12.09708398029862
 30
0.0
 11
201.4663112086883
 21
12.61882496334041
 31
0.0
  0
LINE
  5
9D7
330
2
100
AcDbEntity
  8
R-SWTS-DET1
100
AcDbLine
 10
192.019151058954
 20
17.02410808897818
 30
0.0
 11
191.1731297661808
 21
17.41861429676054
 31
0.0
  0
LINE
  5
9D9
330
2
100
AcDbEntity
  8
R-SWTS-DET1
100
AcDbLine
 10
180.5459163085251
 20
21.99634818548833
 30
0.0
 11
180.1655277087977
 21
31.76581465402851
 31
0.0
  0
LINE
  5
9DA
330
2
100
AcDbEntity
  8
R-SWTS-DET1
100
AcDbLine
 10
180.8799483236729
 20
22.21840363018065
 30
0.0
 11
180.5290011835647
 21
31.23172926605656
 31
0.0
  0
LINE
  5
9DB
330
2
100
AcDbEntity
  8
R-SWTS-DET1
100
AcDbLine
 10
180.1655277087977
 20
31.76581465402851
 30
0.0
 11
181.7079767082454
 21
31.08695905711203
 31
0.0
  0
LINE
  5
9DC
330
2
100
AcDbEntity
  8
R-SWTS-DET1
100
AcDbLine
 10
180.5290011835647
 20
31.23172926605656
 30
0.0
 11
181.3741446324699
 21
30.85976859786454
 31
0.0
  0
LINE
  5
9DD
330
2
100
AcDbEntity
  8
R-SWTS-DET1
100
AcDbLine
 10
181.741244085167
 20
30.232557732865
 30
0.0
 11
181.7079767082454
 21
31.08695905711203
 31
0.0
  0
LINE
  5
9DE
330
2
100
AcDbEntity
  8
R-SWTS-DET1
100
AcDbLine
 10
181.3925913098962
 20
30.3860051972272
 30
0.0
 11
181.3741446324699
 21
30.85976859786454
 31
0.0
  0
LINE
  5
9DF
330
2
100
AcDbEntity
  8
R-SWTS-DET1
100
AcDbLine
 10
181.3925913098962
 20
30.38600519722721
 30
0.0
 11
181.7412440851672
 21
30.232557732865
 31
0.0
  0
LINE
  5
9E0
330
2
100
AcDbEntity
  8
R-SWTS-DET1
100
AcDbLine
 10
180.1655277087977
 20
31.76581465402851
 30
0.0
 11
181.9415072044021
 21
32.67239484599621
 31
0.0
  0
LINE
  5
9E1
330
2
100
AcDbEntity
  8
R-SWTS-DET1
100
AcDbLine
 10
181.7079767082453
 20
31.08695905711203
 30
0.0
 11
183.4425954314341
 21
31.97242591016492
 31
0.0
  0
LINE
  5
9E2
330
2
100
AcDbEntity
  8
R-SWTS-DET1
100
AcDbLine
 10
181.741244085167
 20
30.232557732865
 30
0.0
 11
184.3346974147018
 21
31.55643192351187
 31
0.0
  0
LINE
  5
9E3
330
2
100
AcDbEntity
  8
R-SWTS-DET1
100
AcDbLine
 10
180.8799483236729
 20
22.21840363018065
 30
0.0
 11
182.6060092815016
 21
23.09950202031925
 31
0.0
  0
LINE
  5
9E4
330
2
100
AcDbEntity
  8
R-SWTS-DET1
100
AcDbLine
 10
208.6701697569292
 20
20.20861480551239
 30
0.0
 11
178.2458046769502
 21
34.39572923680969
 31
0.0
  0
LINE
  5
9E5
330
2
100
AcDbEntity
  8
R-SWTS-DET1
100
AcDbLine
 10
208.6716289027616
 20
20.30238867749257
 30
0.0
 11
178.2472638227828
 21
34.48950310878985
 31
0.0
  0
LINE
  5
9E6
330
2
100
AcDbEntity
  8
R-SWTS-DET1
100
AcDbLine
 10
190.839097751033
 20
17.19655885206812
 30
0.0
 11
190.4587091513051
 21
26.96602532060838
 31
0.0
  0
LINE
  5
9E7
330
2
100
AcDbEntity
  8
R-SWTS-DET1
100
AcDbLine
 10
191.1731297661808
 20
17.41861429676052
 30
0.0
 11
190.8221826260723
 21
26.43193993263643
 31
0.0
  0
LINE
  5
9E8
330
2
100
AcDbEntity
  8
R-SWTS-DET1
100
AcDbLine
 10
190.4587091513051
 20
26.96602532060838
 30
0.0
 11
192.0011581507528
 21
26.28716972369192
 31
0.0
  0
LINE
  5
9E9
330
2
100
AcDbEntity
  8
R-SWTS-DET1
100
AcDbLine
 10
190.8221826260723
 20
26.43193993263643
 30
0.0
 11
191.6673260749778
 21
26.05997926444441
 31
0.0
  0
LINE
  5
9EA
330
2
100
AcDbEntity
  8
R-SWTS-DET1
100
AcDbLine
 10
192.0344255276749
 20
25.43276839944488
 30
0.0
 11
192.0011581507528
 21
26.28716972369192
 31
0.0
  0
LINE
  5
9EB
330
2
100
AcDbEntity
  8
R-SWTS-DET1
100
AcDbLine
 10
191.6857727524039
 20
25.58621586380709
 30
0.0
 11
191.6673260749778
 21
26.05997926444441
 31
0.0
  0
LINE
  5
9EC
330
2
100
AcDbEntity
  8
R-SWTS-DET1
100
AcDbLine
 10
191.6857727524038
 20
25.58621586380709
 30
0.0
 11
192.0344255276749
 21
25.43276839944488
 31
0.0
  0
LINE
  5
9ED
330
2
100
AcDbEntity
  8
R-SWTS-DET1
100
AcDbLine
 10
190.4587091513051
 20
26.96602532060838
 30
0.0
 11
192.2346886469096
 21
27.8726055125761
 31
0.0
  0
LINE
  5
9EE
330
2
100
AcDbEntity
  8
R-SWTS-DET1
100
AcDbLine
 10
192.0011581507528
 20
26.28716972369192
 30
0.0
 11
193.7357768739416
 21
27.17263657674478
 31
0.0
  0
LINE
  5
9EF
330
2
100
AcDbEntity
  8
R-SWTS-DET1
100
AcDbLine
 10
192.0344255276749
 20
25.43276839944488
 30
0.0
 11
194.6278788572097
 21
26.75664259009175
 31
0.0
  0
LINE
  5
9F0
330
2
100
AcDbEntity
  8
R-SWTS-DET1
100
AcDbLine
 10
201.1322791935405
 20
12.39676951864807
 30
0.0
 11
200.7518905938131
 21
22.16623598718826
 31
0.0
  0
LINE
  5
9F1
330
2
100
AcDbEntity
  8
R-SWTS-DET1
100
AcDbLine
 10
201.4663112086883
 20
12.6188249633404
 30
0.0
 11
201.1153640685802
 21
21.6321505992163
 31
0.0
  0
LINE
  5
9F2
330
2
100
AcDbEntity
  8
R-SWTS-DET1
100
AcDbLine
 10
200.7518905938131
 20
22.16623598718826
 30
0.0
 11
202.2943395932607
 21
21.48738039027179
 31
0.0
  0
LINE
  5
9F3
330
2
100
AcDbEntity
  8
R-SWTS-DET1
100
AcDbLine
 10
201.1153640685802
 20
21.6321505992163
 30
0.0
 11
201.9605075174853
 21
21.26018993102428
 31
0.0
  0
LINE
  5
9F4
330
2
100
AcDbEntity
  8
R-SWTS-DET1
100
AcDbLine
 10
202.3276069701825
 20
20.63297906602474
 30
0.0
 11
202.2943395932607
 21
21.48738039027179
 31
0.0
  0
LINE
  5
9F5
330
2
100
AcDbEntity
  8
R-SWTS-DET1
100
AcDbLine
 10
201.9789541949114
 20
20.78642653038695
 30
0.0
 11
201.9605075174853
 21
21.26018993102428
 31
0.0
  0
LINE
  5
9F6
330
2
100
AcDbEntity
  8
R-SWTS-DET1
100
AcDbLine
 10
201.9789541949114
 20
20.78642653038697
 30
0.0
 11
202.3276069701825
 21
20.63297906602474
 31
0.0
  0
LINE
  5
9F7
330
2
100
AcDbEntity
  8
R-SWTS-DET1
100
AcDbLine
 10
200.7518905938131
 20
22.16623598718826
 30
0.0
 11
202.5278700894175
 21
23.07281617915596
 31
0.0
  0
LINE
  5
9F8
330
2
100
AcDbEntity
  8
R-SWTS-DET1
100
AcDbLine
 10
202.2943395932607
 20
21.48738039027179
 30
0.0
 11
204.0289583164495
 21
22.37284724332466
 31
0.0
  0
LINE
  5
9F9
330
2
100
AcDbEntity
  8
R-SWTS-DET1
100
AcDbLine
 10
202.3276069701825
 20
20.63297906602474
 30
0.0
 11
204.9210602997171
 21
21.95685325667163
 31
0.0
  0
LWPOLYLINE
  5
9FA
330
2
100
AcDbEntity
  8
R-SWTS-PAT1
100
AcDbPolyline
 90
       13
 70
     0
 43
0.0
 10
184.6215572080061
 20
26.43815287848322
 42
0.1233574990715203
 10
184.1793075329587
 20
26.21806655981188
 10
183.9849779106422
 20
26.16582699672889
 10
183.8110547081156
 20
26.09254617982901
 10
183.4505710958794
 20
26.02216829141631
 42
0.1677547006989386
 10
182.7591015006483
 20
25.55628119522861
 42
0.3762453366523994
 10
182.9437718441281
 20
25.06189232248149
 42
0.1719177133065047
 10
183.5141435546629
 20
24.77775350630859
 42
0.1236282332113334
 10
184.8949977994593
 20
24.68718773934997
 10
185.133364435483
 20
24.90453222266441
 42
-0.5065256313991414
 10
185.0176518078302
 20
24.57475244600829
 42
-0.2479166811011086
 10
185.5718524245026
 20
24.21382509578496
 42
0.2813894877408329
 10
186.2501040672308
 20
23.83024357938657
 42
4.927714221226432
  0
LWPOLYLINE
  5
9FB
330
2
100
AcDbEntity
  8
R-SWTS-PAT1
100
AcDbPolyline
 90
        3
 70
     0
 43
0.0
 10
184.4867678880785
 20
25.05721184901096
 42
-0.3496418686944157
 10
184.9681873067975
 20
25.45623255673696
 42
0.0730211404636849
 10
185.3673717278822
 20
25.52276545643952
 42
-0.0804726180184284
  0
LWPOLYLINE
  5
9FC
330
2
100
AcDbEntity
  8
R-SWTS-PAT1
100
AcDbPolyline
 90
        4
 70
     0
 43
0.0
 10
183.9434607927674
 20
23.84523298370109
 42
-0.2459294044184823
 10
184.4852353109472
 20
23.89156616256397
 42
-0.341982549893619
 10
184.9734360449932
 20
23.57592611310293
 42
0.2993951712390455
 10
185.2577138103148
 20
23.35929490007549
 42
-0.947596940939227
  0
LWPOLYLINE
  5
9FD
330
2
100
AcDbEntity
  8
R-SWTS-PAT1
100
AcDbPolyline
 90
        2
 70
     0
 43
0.0
 10
183.1934606185524
 20
24.26618867731139
 42
0.433999944924501
 10
184.1048274022322
 20
23.07679445880713
 42
-10.3258488456165
  0
LWPOLYLINE
  5
9FE
330
2
100
AcDbEntity
  8
R-SWTS-PAT1
100
AcDbPolyline
 90
        4
 70
     0
 43
0.0
 10
182.7591015006483
 20
25.55628119522861
 42
0.5472151931104267
 10
182.6232064487554
 20
24.65911855609249
 42
-0.2092760369121877
 10
182.9207299925009
 20
24.02463618629949
 42
-0.3348716185508143
 10
182.6222021529939
 20
23.6068191940684
 42
6.202509703889441
  0
LWPOLYLINE
  5
9FF
330
2
100
AcDbEntity
  8
R-SWTS-PAT1
100
AcDbPolyline
 90
        4
 70
     0
 43
0.0
 10
182.9672225639454
 20
23.55536381170996
 42
0.152870838232666
 10
182.6234327723807
 20
23.19201889455493
 42
0.3394919780474954
 10
182.7616506291686
 20
22.79189714239038
 42
0.3403086134188662
 10
183.2777463355111
 20
22.55593914518306
 42
0.3403086134188662
  0
LWPOLYLINE
  5
A00
330
2
100
AcDbEntity
  8
R-SWTS-PAT1
100
AcDbPolyline
 90
        3
 70
     0
 43
0.0
 10
183.0112130351101
 20
22.94820458172956
 42
-0.3391570618115819
 10
183.2224169735626
 20
22.75459695319132
 42
0.4051758081370764
 10
184.4265130818701
 20
21.88402366520143
 42
-0.2367053015463578
  0
LWPOLYLINE
  5
A01
330
2
100
AcDbEntity
  8
R-SWTS-PAT1
100
AcDbPolyline
 90
        4
 70
     0
 43
0.0
 10
184.0038857930474
 20
22.46040641263646
 42
0.2772598938201638
 10
185.1588621831472
 20
21.57682660502189
 42
-0.1335474939980996
 10
186.1508532683258
 20
21.35032390880287
 42
0.0249931879788393
 10
186.5929987878213
 20
21.14215369038594
 42
-0.5905020645188221
  0
LINE
  5
A02
330
2
100
AcDbEntity
  8
R-SWTS-DET1
100
AcDbLine
 10
191.1731297661808
 20
17.41861429676052
 30
0.0
 11
192.8944340643569
 21
18.29728456572343
 31
0.0
  0
LWPOLYLINE
  5
A03
330
2
100
AcDbEntity
  8
R-SWTS-PAT1
100
AcDbPolyline
 90
        6
 70
     0
 43
0.0
 10
194.6550427760151
 20
21.63414531962533
 10
193.9533949049051
 20
21.39918953127436
 42
0.1176571400683233
 10
193.4482364755196
 20
21.16141656219217
 42
0.2702157952413412
 10
192.9552876551801
 20
20.59762811105996
 42
0.0765728409706565
 10
192.9377803601485
 20
20.13455549088501
 42
0.1781601430740732
 10
193.3125448816133
 20
19.39252038554559
 42
3.217300123770464
  0
LWPOLYLINE
  5
A04
330
2
100
AcDbEntity
  8
R-SWTS-PAT1
100
AcDbPolyline
 90
        5
 70
     0
 43
0.0
 10
193.2184079513471
 20
20.13455728806366
 10
193.3101284513337
 20
20.31266060538936
 42
-0.5243673389794907
 10
193.7507764027668
 20
20.33450558529055
 42
0.1680823087150792
 10
194.041001367545
 20
20.1429807705159
 42
0.1493711361704541
 10
195.513966167242
 20
19.46668267433131
 42
10.42618741586264
  0
LWPOLYLINE
  5
A05
330
2
100
AcDbEntity
  8
R-SWTS-PAT1
100
AcDbPolyline
 90
        3
 70
     0
 43
0.0
 10
194.2358889494874
 20
20.21962141350323
 42
0.4046314475080037
 10
194.7704142527319
 20
20.11524897650188
 42
0.0414198980078885
 10
195.615165639358
 20
20.76943392161226
 42
3.096171890342914
  0
LWPOLYLINE
  5
A06
330
2
100
AcDbEntity
  8
R-SWTS-PAT1
100
AcDbPolyline
 90
        2
 70
     0
 43
0.0
 10
193.76962230685
 20
18.63179402354989
 42
-0.4718806390878026
 10
195.3959760555207
 20
18.3773374533525
 42
4.976186657193154
  0
LWPOLYLINE
  5
A07
330
2
100
AcDbEntity
  8
R-SWTS-PAT1
100
AcDbPolyline
 90
        4
 70
     0
 43
0.0
 10
195.3419123989154
 20
18.99561089510624
 10
195.4587936173239
 20
19.14019360562366
 10
195.8855719121839
 20
19.14628344298761
 10
196.3562251721073
 20
19.10713358468833
  0
LWPOLYLINE
  5
A08
330
2
100
AcDbEntity
  8
R-SWTS-PAT1
100
AcDbPolyline
 90
        4
 70
     0
 43
0.0
 10
193.0590620806143
 20
19.73015388783366
 10
193.0905615507731
 20
19.0782925487364
 42
-0.1243016697066097
 10
192.9047991258318
 20
18.34478003418966
 42
0.3275785591660095
 10
193.16999710923
 20
17.67732860660502
 42
3.721067334365765
  0
LWPOLYLINE
  5
A09
330
2
100
AcDbEntity
  8
R-SWTS-PAT1
100
AcDbPolyline
 90
        3
 70
     0
 43
0.0
 10
193.1027742955887
 20
17.6669443462583
 42
-0.2157745521771547
 10
194.2462759686754
 20
16.97676452085846
 42
0.151645669815361
 10
195.1263922408692
 20
16.75324311653923
 42
-0.018231143250799
  0
LWPOLYLINE
  5
A0A
330
2
100
AcDbEntity
  8
R-SWTS-PAT1
100
AcDbPolyline
 90
        4
 70
     0
 43
0.0
 10
195.0770021864494
 20
17.26048163153343
 10
195.3402982803828
 20
16.88834148895236
 10
195.8729468148408
 20
16.53324357161273
 42
0.3159585677413871
 10
196.3552349899113
 20
16.58236090910365
 42
2.620435434270836
  0
LINE
  5
A0B
330
2
100
AcDbEntity
  8
R-SWTS-DET1
100
AcDbLine
 10
202.9193448881714
 20
11.56344709961564
 30
0.0
 11
202.9345424151372
 21
12.5401355953241
 31
0.0
  0
LINE
  5
A0C
330
2
100
AcDbEntity
  8
R-SWTS-DET1
100
AcDbLine
 10
202.585188357535
 20
12.09708398029862
 30
0.0
 11
202.594549301171
 21
12.69867698808643
 31
0.0
  0
LINE
  5
A0D
330
2
100
AcDbEntity
  8
R-SWTS-DET1
100
AcDbLine
 10
202.9345424151372
 20
12.5401355953241
 30
0.0
 11
202.594549301171
 21
12.69867698808643
 31
0.0
  0
LINE
  5
A0E
330
2
100
AcDbEntity
  8
R-SWTS-DET1
100
AcDbLine
 10
202.594549301171
 20
12.69867698808643
 30
0.0
 11
231.3584021713555
 21
28.00685372180403
 31
0.0
  0
LINE
  5
A0F
330
2
100
AcDbEntity
  8
R-SWTS-DET1
100
AcDbLine
 10
201.4663112086883
 20
12.6188249633404
 30
0.0
 11
230.4100218098431
 21
28.02272232061428
 31
0.0
  0
LINE
  5
A10
330
2
100
AcDbEntity
  8
R-SWTS-DET1
100
AcDbLine
 10
230.4100218098431
 20
28.02272232061428
 30
0.0
 11
230.4129995758863
 21
31.76484343827246
 31
0.0
  0
LINE
  5
A11
330
2
100
AcDbEntity
  8
R-SWTS-DET1
100
AcDbLine
 10
230.9313973126768
 20
27.77960093086845
 30
0.0
 11
230.4100218098431
 21
28.02272232061429
 31
0.0
  0
LINE
  5
A12
330
2
100
AcDbEntity
  8
R-SWTS-DET1
100
AcDbLine
 10
231.6983952853216
 20
27.84831232904169
 30
0.0
 11
231.3584021713555
 21
28.00685372180403
 31
0.0
  0
LINE
  5
A13
330
2
100
AcDbEntity
  8
R-SWTS-DET1
100
AcDbLine
 10
231.6983952853216
 20
27.84831232904169
 30
0.0
 11
231.6831977583559
 21
26.87162383333328
 31
0.0
  0
LINE
  5
A15
330
2
100
AcDbEntity
  8
R-SWTS-DET1
100
AcDbLine
 10
218.2620448016575
 20
8.063114277762453
 30
0.0
 11
206.5725737561441
 21
13.50770239156276
 31
0.0
  0
LINE
  5
A18
330
2
100
AcDbEntity
  8
R-SWTS-DET1
100
AcDbLine
 10
218.2618191005293
 20
8.057129135021352
 30
0.0
 11
220.0342051370683
 21
8.950634352456063
 31
0.0
  0
LINE
  5
A19
330
2
100
AcDbEntity
  8
R-SWTS-DET1
100
AcDbLine
 10
220.1714565656997
 20
8.958037271630393
 30
0.0
 11
208.3604693494067
 21
14.45922379749616
 31
0.0
  0
LINE
  5
A1B
330
2
100
AcDbEntity
  8
R-SWTS-DET1
100
AcDbLine
 10
220.2823641327435
 20
8.791301461847005
 30
0.0
 11
220.2579532924589
 21
8.143974774600046
 31
0.0
  0
ARC
  5
A1C
330
2
100
AcDbEntity
  8
R-SWTS-DET1
100
AcDbCircle
 10
220.1112764340134
 20
8.797753218851054
 30
0.0
 40
0.1712093041430463
100
AcDbArc
 50
357.8403861109121
 51
116.7538436329992
  0
LINE
  5
A1E
330
2
100
AcDbEntity
  8
R-SWTS-DET1
100
AcDbLine
 10
220.2579532924589
 20
8.143974774600046
 30
0.0
 11
221.9303040197369
 21
8.987049629286667
 31
0.0
  0
LINE
  5
A21
330
2
100
AcDbEntity
  8
R-SWTS-DET1
100
AcDbLine
 10
221.9303040197369
 20
8.987049629286659
 30
0.0
 11
209.2104225807187
 21
14.91157050984517
 31
0.0
  0
LINE
  5
A22
330
2
100
AcDbEntity
  8
R-SWTS-DET1
100
AcDbLine
 10
208.6701697569292
 20
20.20861480551238
 30
0.0
 11
208.6716289027616
 21
20.30238867749257
 31
0.0
  0
LINE
  5
A23
330
2
100
AcDbEntity
  8
R-SWTS-DET1
100
AcDbLine
 10
209.7560887041488
 20
20.88027078794456
 30
0.0
 11
179.3317236241698
 21
35.06738521924187
 31
0.0
  0
LWPOLYLINE
  5
A24
330
2
100
AcDbEntity
  8
R-SWTS-DET1
100
AcDbPolyline
 90
       38
 70
     0
 43
0.0
 10
208.6701697569292
 20
20.20861480551239
 10
209.8373969537369
 20
20.83060163711777
 10
209.8530382961065
 20
21.83581249703813
 10
210.6844135503209
 20
22.27883204084076
 10
211.6100546548133
 20
21.77520758018427
 10
212.5314248772168
 20
22.26618324193673
 10
212.5470662195862
 20
23.27139410185711
 10
213.3784414738005
 20
23.71441364565975
 10
214.3040825782929
 20
23.21078918500324
 10
215.2254528006964
 20
23.7017648467557
 10
215.2410941430661
 20
24.70697570667607
 10
216.07246939728
 20
25.14999525047873
 10
216.9981105017727
 20
24.64637078982221
 10
217.9194807241758
 20
25.13734645157468
 10
217.9351220665455
 20
26.14255731149503
 10
218.7664973207598
 20
26.58557685529768
 10
219.6921384252524
 20
26.08195239464117
 10
220.6135086476556
 20
26.57292805639365
 10
220.629149990025
 20
27.57813891631401
 10
221.4605252442393
 20
28.02115846011666
 10
222.3861663487319
 20
27.51753399946014
 10
223.3075365711351
 20
28.00850966121262
 10
223.3231779135049
 20
29.01372052113297
 10
224.1545531677191
 20
29.45674006493563
 10
225.0801942722114
 20
28.95311560427912
 10
226.0015644946147
 20
29.4440912660316
 10
226.0172058369845
 20
30.44930212595194
 10
226.8485810911985
 20
30.8923216697546
 10
227.7742221956912
 20
30.38869720909808
 10
228.6955924180943
 20
30.87967287085056
 10
228.711233760464
 20
31.88488373077092
 10
229.5426090146784
 20
32.32790327457356
 10
230.4682501191707
 20
31.82427881391706
 10
231.389620341574
 20
32.31525447566952
 10
231.4052616839437
 20
33.32046533558989
 10
232.2366369381578
 20
33.76348487939253
 10
233.1622780426504
 20
33.25986041873603
 10
233.9891167694103
 20
33.7004625579876
  0
LWPOLYLINE
  5
A25
330
2
100
AcDbEntity
  8
R-SWTS-DET1
100
AcDbPolyline
 90
       38
 70
     0
 43
0.0
 10
208.6716289027616
 20
20.30238867749257
 10
209.7560887041487
 20
20.88027078794456
 10
209.7717300465184
 20
21.88548164786493
 10
210.6848184321133
 20
22.37204412129345
 10
211.610459536606
 20
21.86841966063695
 10
212.4501166276286
 20
22.31585239276354
 10
212.4657579699984
 20
23.32106325268389
 10
213.378846355593
 20
23.80762572611243
 10
214.3044874600856
 20
23.30400126545592
 10
215.144144551108
 20
23.7514339975825
 10
215.1597858934779
 20
24.75664485750286
 10
216.0728742790728
 20
25.24320733093141
 10
216.9985153835652
 20
24.73958287027488
 10
217.8381724745879
 20
25.18701560240148
 10
217.8538138169574
 20
26.19222646232183
 10
218.7669022025521
 20
26.67878893575037
 10
219.6925433070447
 20
26.17516447509387
 10
220.5322003980675
 20
26.62259720722044
 10
220.5478417404372
 20
27.6278080671408
 10
221.460930126032
 20
28.11437054056934
 10
222.3865712305244
 20
27.61074607991282
 10
223.226228321547
 20
28.05817881203941
 10
223.2418696639167
 20
29.06338967195977
 10
224.1549580495116
 20
29.54995214538832
 10
225.080599154004
 20
29.0463276847318
 10
225.9202562450267
 20
29.49376041685839
 10
225.9358975873963
 20
30.49897127677873
 10
226.8489859729912
 20
30.98553375020729
 10
227.7746270774837
 20
30.48190928955077
 10
228.6142841685063
 20
30.92934202167736
 10
228.6299255108759
 20
31.93455288159771
 10
229.5430138964708
 20
32.42111535502625
 10
230.4686550009635
 20
31.91749089436975
 10
231.308312091986
 20
32.36492362649632
 10
231.3239534343558
 20
33.37013448641668
 10
232.2370418199504
 20
33.85669695984522
 10
233.1626829244431
 20
33.3530724991887
 10
233.9905759152427
 20
33.79423642996778
  0
LINE
  5
A26
330
2
100
AcDbEntity
  8
R-SWTS-DET1
100
AcDbLine
 10
233.9905759152427
 20
33.79423642996778
 30
0.0
 11
230.2775169775312
 21
35.52566424780342
 31
0.0
  0
LINE
  5
A27
330
2
100
AcDbEntity
  8
R-SWTS-DET1
100
AcDbLine
 10
209.7717300465184
 20
21.88548164786492
 30
0.0
 11
179.3473649665395
 21
36.07259607916223
 31
0.0
  0
LINE
  5
A28
330
2
100
AcDbEntity
  8
R-SWTS-DET1
100
AcDbLine
 10
210.6848184321133
 20
22.37204412129345
 30
0.0
 11
180.2604533521343
 21
36.55915855259075
 31
0.0
  0
LINE
  5
A29
330
2
100
AcDbEntity
  8
R-SWTS-DET1
100
AcDbLine
 10
212.4501166276286
 20
22.31585239276352
 30
0.0
 11
205.5868665631215
 21
25.51623845767591
 31
0.0
  0
LINE
  5
A2A
330
2
100
AcDbEntity
  8
R-SWTS-DET1
100
AcDbLine
 10
212.4657579699983
 20
23.3210632526839
 30
0.0
 11
205.9746783004717
 21
26.34790341227831
 31
0.0
  0
LINE
  5
A2B
330
2
100
AcDbEntity
  8
R-SWTS-DET1
100
AcDbLine
 10
213.378846355593
 20
23.80762572611244
 30
0.0
 11
207.1846280448082
 21
26.69603716071528
 31
0.0
  0
LINE
  5
A2C
330
2
100
AcDbEntity
  8
R-SWTS-DET1
100
AcDbLine
 10
215.144144551108
 20
23.75143399758249
 30
0.0
 11
209.5821650375342
 21
26.34502763926311
 31
0.0
  0
LINE
  5
A2D
330
2
100
AcDbEntity
  8
R-SWTS-DET1
100
AcDbLine
 10
215.1597858934779
 20
24.75664485750288
 30
0.0
 11
210.0000161399174
 21
27.16268500790453
 31
0.0
  0
LINE
  5
A2E
330
2
100
AcDbEntity
  8
R-SWTS-DET1
100
AcDbLine
 10
216.0728742790728
 20
25.24320733093141
 30
0.0
 11
211.2339760308366
 21
27.4996226411167
 31
0.0
  0
LINE
  5
A2F
330
2
100
AcDbEntity
  8
R-SWTS-DET1
100
AcDbLine
 10
217.8381724745878
 20
25.18701560240146
 30
0.0
 11
214.5136808675736
 21
26.73725149822409
 31
0.0
  0
LINE
  5
A30
330
2
100
AcDbEntity
  8
R-SWTS-DET1
100
AcDbLine
 10
217.8538138169574
 20
26.19222646232184
 30
0.0
 11
214.9014926049238
 21
27.56891645282641
 31
0.0
  0
LINE
  5
A31
330
2
100
AcDbEntity
  8
R-SWTS-DET1
100
AcDbLine
 10
218.7669022025521
 20
26.67878893575038
 30
0.0
 11
215.7264431971083
 21
28.09657825429517
 31
0.0
  0
LINE
  5
A32
330
2
100
AcDbEntity
  8
R-SWTS-DET1
100
AcDbLine
 10
220.5322003980675
 20
26.62259720722045
 30
0.0
 11
217.4599762644386
 21
28.05519884830011
 31
0.0
  0
LINE
  5
A33
330
2
100
AcDbEntity
  8
R-SWTS-DET1
100
AcDbLine
 10
220.5478417404372
 20
27.62780806714081
 30
0.0
 11
217.8918809906802
 21
28.86630290451148
 31
0.0
  0
LINE
  5
A34
330
2
100
AcDbEntity
  8
R-SWTS-DET1
100
AcDbLine
 10
221.460930126032
 20
28.11437054056936
 30
0.0
 11
219.145868551959
 21
29.19390148165986
 31
0.0
  0
LINE
  5
A35
330
2
100
AcDbEntity
  8
R-SWTS-DET1
100
AcDbLine
 10
223.2262283215469
 20
28.05817881203942
 30
0.0
 11
220.8201925799659
 21
29.18013170413328
 31
0.0
  0
LINE
  5
A36
330
2
100
AcDbEntity
  8
R-SWTS-DET1
100
AcDbLine
 10
223.2418696639166
 20
29.06338967195978
 30
0.0
 11
221.2406529515643
 21
29.99657235055738
 31
0.0
  0
LINE
  5
A37
330
2
100
AcDbEntity
  8
R-SWTS-DET1
100
AcDbLine
 10
224.1549580495116
 20
29.54995214538831
 30
0.0
 11
222.4946405128434
 21
30.32417092770576
 31
0.0
  0
LINE
  5
A38
330
2
100
AcDbEntity
  8
R-SWTS-DET1
100
AcDbLine
 10
225.9202562450266
 20
29.49376041685837
 30
0.0
 11
223.1452943120656
 21
30.78774641728668
 31
0.0
  0
LINE
  5
A39
330
2
100
AcDbEntity
  8
R-SWTS-DET1
100
AcDbLine
 10
225.9358975873963
 20
30.49897127677875
 30
0.0
 11
223.2998285743811
 21
31.72819044497281
 31
0.0
  0
LINE
  5
A3A
330
2
100
AcDbEntity
  8
R-SWTS-DET1
100
AcDbLine
 10
226.8489859729911
 20
30.98553375020729
 30
0.0
 11
224.5538161356601
 21
32.05578902212121
 31
0.0
  0
LINE
  5
A3B
330
2
100
AcDbEntity
  8
R-SWTS-DET1
100
AcDbLine
 10
228.6142841685062
 20
30.92934202167735
 30
0.0
 11
225.9096490846973
 21
32.19053407377209
 31
0.0
  0
LINE
  5
A3C
330
2
100
AcDbEntity
  8
R-SWTS-DET1
100
AcDbLine
 10
228.6299255108758
 20
31.93455288159772
 30
0.0
 11
226.2450693424311
 21
33.04662957654173
 31
0.0
  0
LINE
  5
A3D
330
2
100
AcDbEntity
  8
R-SWTS-DET1
100
AcDbLine
 10
229.5430138964707
 20
32.42111535502625
 30
0.0
 11
227.49905690371
 21
33.37422815369011
 31
0.0
  0
LINE
  5
A3E
330
2
100
AcDbEntity
  8
R-SWTS-DET1
100
AcDbLine
 10
231.3083120919859
 20
32.36492362649632
 30
0.0
 11
229.0870939153255
 21
33.40069467270616
 31
0.0
  0
LINE
  5
A3F
330
2
100
AcDbEntity
  8
R-SWTS-DET1
100
AcDbLine
 10
231.3239534343557
 20
33.37013448641668
 30
0.0
 11
229.3857465329909
 21
34.2739352076119
 31
0.0
  0
LINE
  5
A40
330
2
100
AcDbEntity
  8
R-SWTS-DET1
100
AcDbLine
 10
232.2370418199504
 20
33.85669695984523
 30
0.0
 11
229.3597025717385
 21
35.19842228639638
 31
0.0
  0
LINE
  5
A42
330
2
100
AcDbEntity
  8
R-SWTS-DET1
100
AcDbLine
 10
178.2472638227828
 20
34.48950310878985
 30
0.0
 11
178.2458046769502
 21
34.39572923680969
 31
0.0
  0
LINE
  5
A47
330
2
100
AcDbEntity
  8
R-SWTS-DET1
100
AcDbLine
 10
233.9905759152427
 20
33.79423642996778
 30
0.0
 11
233.9891167694103
 21
33.70046255798761
 31
0.0
  0
LINE
  5
A4A
330
2
100
AcDbEntity
  8
R-SWTS-DET1
100
AcDbLine
 10
228.2393463558691
 20
33.02902551289688
 30
0.0
 11
229.0870939153255
 21
33.40069467270613
 31
0.0
  0
LWPOLYLINE
  5
A4B
330
2
100
AcDbEntity
  8
R-SWTS-DET1
100
AcDbPolyline
 90
        2
 70
     0
 43
0.0
 10
226.2450693424311
 20
33.04662957654174
 10
225.9096490846975
 20
32.19053407377207
  0
LINE
  5
A4C
330
2
100
AcDbEntity
  8
R-SWTS-DET1
100
AcDbLine
 10
225.3396790148301
 20
31.68933514330446
 30
0.0
 11
225.9096490846973
 21
32.19053407377206
 31
0.0
  0
LWPOLYLINE
  5
A4D
330
2
100
AcDbEntity
  8
R-SWTS-DET1
100
AcDbPolyline
 90
        2
 70
     0
 43
0.0
 10
223.2998285743811
 20
31.72819044497281
 10
223.1452943120656
 20
30.78774641728668
  0
LINE
  5
A4E
330
2
100
AcDbEntity
  8
R-SWTS-DET1
100
AcDbLine
 10
222.4946405128434
 20
30.32417092770576
 30
0.0
 11
223.1452943120656
 21
30.78774641728668
 31
0.0
  0
LWPOLYLINE
  5
A4F
330
2
100
AcDbEntity
  8
R-SWTS-DET1
100
AcDbPolyline
 90
        2
 70
     0
 43
0.0
 10
221.2406529515646
 20
29.99657235055739
 10
220.820192579966
 20
29.18013170413328
  0
LINE
  5
A50
330
2
100
AcDbEntity
  8
R-SWTS-DET1
100
AcDbLine
 10
219.5616715906856
 20
29.00000934041751
 30
0.0
 11
220.8201925799659
 21
29.18013170413328
 31
0.0
  0
LWPOLYLINE
  5
A51
330
2
100
AcDbEntity
  8
R-SWTS-DET1
100
AcDbPolyline
 90
        2
 70
     0
 43
0.0
 10
217.8918809906803
 20
28.86630290451148
 10
217.4599762644386
 20
28.05519884830011
  0
LINE
  5
A52
330
2
100
AcDbEntity
  8
R-SWTS-DET1
100
AcDbLine
 10
216.5239355930663
 20
27.72470144273963
 30
0.0
 11
217.4599762644386
 21
28.05519884830011
 31
0.0
  0
LINE
  5
A77
330
2
100
AcDbEntity
  8
R-SWTS-DET1
100
AcDbLine
 10
235.5484734978011
 20
17.76902522788077
 30
0.0
 11
224.3599699283475
 21
22.97418817375747
 31
0.0
  0
LINE
  5
A7A
330
2
100
AcDbEntity
  8
R-SWTS-DET1
100
AcDbLine
 10
235.5482477966727
 20
17.76304008513967
 30
0.0
 11
237.3206338332118
 21
18.65654530257437
 31
0.0
  0
LINE
  5
A7B
330
2
100
AcDbEntity
  8
R-SWTS-DET1
100
AcDbLine
 10
237.4578852618433
 20
18.66394822174871
 30
0.0
 11
226.1478655216101
 21
23.92570957969088
 31
0.0
  0
LINE
  5
A7D
330
2
100
AcDbEntity
  8
R-SWTS-DET1
100
AcDbLine
 10
237.5687928288869
 20
18.49721241196531
 30
0.0
 11
237.5443819886024
 21
17.84988572471837
 31
0.0
  0
ARC
  5
A7E
330
2
100
AcDbEntity
  8
R-SWTS-DET1
100
AcDbCircle
 10
237.3977051301569
 20
18.50366416896937
 30
0.0
 40
0.1712093041430463
100
AcDbArc
 50
357.8403861109121
 51
116.7538436329992
  0
LINE
  5
A80
330
2
100
AcDbEntity
  8
R-SWTS-DET1
100
AcDbLine
 10
237.5443819886024
 20
17.84988572471837
 30
0.0
 11
239.2167327158805
 21
18.69296057940498
 31
0.0
  0
LINE
  5
A83
330
2
100
AcDbEntity
  8
R-SWTS-DET1
100
AcDbLine
 10
239.2167327158805
 20
18.69296057940497
 30
0.0
 11
226.9978187529222
 21
24.37805629203988
 31
0.0
  0
LINE
  5
A84
330
2
100
AcDbEntity
  8
R-SWTS-DET1
100
AcDbLine
 10
229.5157434639977
 20
37.47441272090589
 30
0.0
 11
231.0581924634453
 21
36.79555712398942
 31
0.0
  0
LINE
  5
A86
330
2
100
AcDbEntity
  8
R-SWTS-DET1
100
AcDbLine
 10
231.0914598403672
 20
35.94115579974239
 30
0.0
 11
231.0581924634453
 21
36.79555712398942
 31
0.0
  0
LINE
  5
A8A
330
2
100
AcDbEntity
  8
R-SWTS-DET1
100
AcDbLine
 10
229.5043342482437
 20
35.13097942803022
 30
0.0
 11
231.0914598403672
 21
35.94115579974239
 31
0.0
  0
LINE
  5
A8B
330
2
100
AcDbEntity
  8
R-SWTS-DET1
100
AcDbLine
 10
228.9059178525478
 20
37.16311643552457
 30
0.0
 11
229.5157434639977
 21
37.47441272090589
 31
0.0
  0
LINE
  5
A8C
330
2
100
AcDbEntity
  8
R-SWTS-DET1
100
AcDbLine
 10
229.1997333956609
 20
35.84687377341803
 30
0.0
 11
231.0581924634453
 21
36.79555712398942
 31
0.0
  0
LWPOLYLINE
  5
A8F
330
2
100
AcDbEntity
  8
R-SWTS-DET1
100
AcDbPolyline
 90
        2
 70
     0
 43
0.0
 10
204.189521074684
 20
26.60598013050871
 42
-0.1466730996408296
 10
211.8040368112028
 20
28.14139318134359
 42
-0.1740245229263825
  0
LWPOLYLINE
  5
A90
330
2
100
AcDbEntity
  8
R-SWTS-DET1
100
AcDbPolyline
 90
        3
 70
     0
 43
0.0
 10
225.6533507206938
 20
39.54902973272424
 42
-0.1377543786633832
 10
228.990385905326
 20
37.05064031657496
 42
-0.3020836374906525
 10
228.7333114080787
 20
35.9960847942779
  0
LWPOLYLINE
  5
A91
330
2
100
AcDbEntity
  8
R-SWTS-DET1
100
AcDbPolyline
 90
        2
 70
     0
 43
0.0
 10
211.8040368112028
 20
28.14139318134359
 42
0.0667929806826446
 10
215.4809860266098
 20
28.93424465041622
 42
5.726554417763541
  0
LINE
  5
A92
330
2
100
AcDbEntity
  8
R-SWTS-DET1
100
AcDbLine
 10
215.4809860266097
 20
28.93424465041622
 30
0.0
 11
228.7333114080786
 21
35.9960847942779
 31
0.0
  0
LWPOLYLINE
  5
A93
330
2
100
AcDbEntity
  8
R-SWTS-DET1
100
AcDbPolyline
 90
        3
 70
     0
 43
0.0
 10
228.990385905326
 20
37.05064031657496
 42
-0.0431883742285943
 10
229.2155823288536
 20
35.66274820948442
 42
-0.2296394707687245
 10
229.0870939153255
 20
33.40069467270612
 42
-3.850450286634566
  0
LINE
  5
A94
330
2
100
AcDbEntity
  8
R-SWTS-DET1
100
AcDbLine
 10
226.2450693424311
 20
33.04662957654174
 30
0.0
 11
227.4990569037099
 21
33.37422815369011
 31
0.0
  0
LINE
  5
A95
330
2
100
AcDbEntity
  8
R-SWTS-DET1
100
AcDbLine
 10
223.2998285743811
 20
31.72819044497281
 30
0.0
 11
224.5538161356599
 21
32.05578902212116
 31
0.0
  0
LINE
  5
A96
330
2
100
AcDbEntity
  8
R-SWTS-DET1
100
AcDbLine
 10
221.2406529515646
 20
29.99657235055739
 30
0.0
 11
222.4946405128434
 21
30.32417092770576
 31
0.0
  0
LINE
  5
A97
330
2
100
AcDbEntity
  8
R-SWTS-DET1
100
AcDbLine
 10
217.8918809906802
 20
28.86630290451148
 30
0.0
 11
219.145868551959
 21
29.19390148165984
 31
0.0
  0
LWPOLYLINE
  5
A9A
330
2
100
AcDbEntity
  8
R-SWTS-DET1
100
AcDbPolyline
 90
        3
 70
     0
 43
0.0
 10
211.2339760308365
 20
27.49962264111669
 10
210.0000161399174
 20
27.16268500790454
 10
209.5821650375342
 20
26.34502763926311
  0
LWPOLYLINE
  5
A9B
330
2
100
AcDbEntity
  8
R-SWTS-DET1
100
AcDbPolyline
 90
        3
 70
     0
 43
0.0
 10
207.1846280448082
 20
26.69603716071528
 10
205.9746783004717
 20
26.34790341227832
 10
205.5868665631213
 20
25.51623845767589
  0
LINE
  5
A9C
330
2
100
AcDbEntity
  8
R-SWTS-DET1
100
AcDbLine
 10
209.5821650375342
 20
26.34502763926311
 30
0.0
 11
208.4037692079788
 21
26.12754229995684
 31
0.0
  0
LINE
  5
A9D
330
2
100
AcDbEntity
  8
R-SWTS-DET1
100
AcDbLine
 10
213.5615512586138
 20
26.41425648747235
 30
0.0
 11
214.5136808675737
 21
26.73725149822407
 31
0.0
  0
LINE
  5
A9E
330
2
100
AcDbEntity
  8
R-SWTS-DET1
100
AcDbLine
 10
214.5136808675737
 20
26.73725149822407
 30
0.0
 11
214.9014926049239
 21
27.56891645282643
 31
0.0
  0
LINE
  5
A9F
330
2
100
AcDbEntity
  8
R-SWTS-DET1
100
AcDbLine
 10
214.9014926049239
 20
27.56891645282643
 30
0.0
 11
215.7264431971084
 21
28.09657825429516
 31
0.0
  0
LINE
  5
AA0
330
2
100
AcDbEntity
  8
R-SWTS-DET1
100
AcDbLine
 10
209.7819771515662
 20
28.17670083815292
 30
0.0
 11
209.7259880047768
 21
28.20280900607441
 31
0.0
  0
LINE
  5
AA4
330
2
100
AcDbEntity
  8
R-SWTS-DET1
100
AcDbLine
 10
204.1895210746839
 20
26.60598013050871
 30
0.0
 11
204.1895210746839
 21
25.40085102105658
 31
0.0
  0
LINE
  5
AA5
330
2
100
AcDbEntity
  8
R-SWTS-DET1
100
AcDbLine
 10
204.1895210746839
 20
26.60598013050871
 30
0.0
 11
181.4665676088396
 21
37.20186734753128
 31
0.0
  0
LINE
  5
AA6
330
2
100
AcDbEntity
  8
R-SWTS-DET1
100
AcDbLine
 10
205.5868665631213
 20
25.51623845767589
 30
0.0
 11
204.7275701449275
 21
25.14995461913884
 31
0.0
  0
LINE
  5
AA7
330
2
100
AcDbEntity
  8
R-SWTS-DET1
100
AcDbLine
 10
178.2472638227828
 20
34.48950310878983
 30
0.0
 11
179.3317236241698
 21
35.06738521924186
 31
0.0
  0
LINE
  5
AA8
330
2
100
AcDbEntity
  8
R-SWTS-DET1
100
AcDbLine
 10
179.3317236241698
 20
35.06738521924186
 30
0.0
 11
179.3473649665394
 21
36.07259607916221
 31
0.0
  0
LINE
  5
AA9
330
2
100
AcDbEntity
  8
R-SWTS-DET1
100
AcDbLine
 10
179.3473649665394
 20
36.07259607916221
 30
0.0
 11
180.2604533521343
 21
36.55915855259074
 31
0.0
  0
LINE
  5
AAA
330
2
100
AcDbEntity
  8
R-SWTS-DET1
100
AcDbLine
 10
181.4665676088396
 20
37.20186734753128
 30
0.0
 11
185.6174499722458
 21
39.41377105971557
 31
0.0
  0
LINE
  5
AAB
330
2
100
AcDbEntity
  8
R-SWTS-DET1
100
AcDbLine
 10
181.4665676088396
 20
37.20186734753128
 30
0.0
 11
181.4665676088396
 21
35.99673823807915
 31
0.0
  0
LINE
  5
AAD
330
2
100
AcDbEntity
  8
R-SWTS-DET1
100
AcDbLine
 10
185.6174499722458
 20
39.41377105971557
 30
0.0
 11
185.6174499722458
 21
40.95127105971557
 31
0.0
  0
LWPOLYLINE
  5
AAF
330
2
100
AcDbEntity
  8
R-SWTS-DET1
100
AcDbPolyline
 90
        6
 70
     0
 43
0.0
 10
185.6174499722459
 20
39.41377105971556
 42
0.1211978695917568
 10
196.9330601737607
 20
36.6982421809559
 42
0.0558520888206821
 10
208.3536460772736
 20
37.74345696601721
 42
-0.0442374269329462
 10
216.4517677851041
 20
39.01120806014291
 42
-0.0991728386735258
 10
223.8345725725845
 20
38.17333374661884
 10
225.6533507206938
 20
39.54902973272424
  0
LWPOLYLINE
  5
AB2
330
2
100
AcDbEntity
  8
R-SWTS-DET1
100
AcDbPolyline
 90
        6
 70
     0
 43
0.0
 10
185.6174499722459
 20
40.95127105971555
 42
0.1211978695917568
 10
196.9330601737607
 20
38.23574218095589
 42
0.0558520888206821
 10
208.3536460772736
 20
39.28095696601721
 42
-0.0442374269329462
 10
216.4517677851041
 20
40.54870806014291
 42
-0.0991728386735258
 10
223.8345725725845
 20
39.71083374661884
 10
225.6533507206938
 20
41.08652973272423
  0
LINE
  5
AB3
330
2
100
AcDbEntity
  8
R-SWTS-DET1
100
AcDbLine
 10
225.6533507206938
 20
39.54902973272424
 30
0.0
 11
225.6533507206938
 21
41.08652973272422
 31
0.0
  0
LINE
  5
AB4
330
2
100
AcDbEntity
  8
R-SWTS-DET1
100
AcDbLine
 10
223.8345725725845
 20
38.17333374661884
 30
0.0
 11
223.8345725725845
 21
39.71083374661883
 31
0.0
  0
LINE
  5
AB5
330
2
100
AcDbEntity
  8
R-SWTS-DET1
100
AcDbLine
 10
185.6174499722458
 20
40.95127105971557
 30
0.0
 11
204.4371275708277
 21
50.9798170646319
 31
0.0
  0
LINE
  5
AB6
330
2
100
AcDbEntity
  8
R-SWTS-DET1
100
AcDbLine
 10
225.6533507206938
 20
41.08652973272422
 30
0.0
 11
204.4371275708277
 21
50.9798170646319
 31
0.0
  0
TEXT
  5
4674
330
2
100
AcDbEntity
  8
R-ANNO-TEXT
100
AcDbText
 10
245.0516558070066
 20
18.80875368348668
 30
0.0
 40
1.5
  1
5/8" (16MM)
  7
SWTSTEXT
100
AcDbText
  0
TEXT
  5
4676
330
2
100
AcDbEntity
  8
R-ANNO-TEXT
100
AcDbText
 10
245.0516558070066
 20
37.74556150221768
 30
0.0
 40
1.5
  1
CORRUGATED
  7
SWTSTEXT
100
AcDbText
  0
TEXT
  5
4677
330
2
100
AcDbEntity
  8
R-ANNO-TEXT
100
AcDbText
 10
245.0516558070066
 20
55.28743906729113
 30
0.0
 40
1.5
  1
FLOOR COVERING
  7
SWTSTEXT
100
AcDbText
  0
LEADER
  5
4678
330
2
100
AcDbEntity
  8
R-ANNO-TEXT
100
AcDbLeader
  3
SCADARCH
 76
     3
 10
208.1006913370643
 20
43.47741152790357
 30
0.0
 10
240.4814940659752
 20
56.1381299261295
 30
0.0
 10
244.0606178767691
 20
56.1381299261295
 30
0.0
1001
ACAD
1000
DSTYLE
1002
{
1070
   341
1005
0
1070
    40
1040
16.0
1070
   343
1005
0
1070
   344
1005
28
1002
}
  0
TEXT
  5
4679
330
2
100
AcDbEntity
  8
R-ANNO-TEXT
100
AcDbText
 10
245.0516558070066
 20
46.43275181779237
 30
0.0
 40
1.5
  1
1 9/16" AVERAGE
  7
SWTSTEXT
100
AcDbText
  0
TEXT
  5
467A
330
2
100
AcDbEntity
  8
R-ANNO-TEXT
100
AcDbText
 10
245.0516558070066
 20
29.06026516477338
 30
0.0
 40
1.5
  1
LIGHT-GAUGE
  7
SWTSTEXT
100
AcDbText
  0
LEADER
  5
467B
330
2
100
AcDbEntity
  8
R-ANNO-TEXT
100
AcDbLeader
  3
SCADARCH
 76
     3
 10
225.9381995819876
 20
37.19201348519824
 30
0.0
 10
240.4877959133346
 20
47.11859881453339
 30
0.0
 10
244.0669197241286
 20
47.11859881453339
 30
0.0
1001
ACAD
1000
DSTYLE
1002
{
1070
   341
1005
0
1070
    40
1040
16.0
1070
   343
1005
0
1070
   344
1005
28
1002
}
  0
LEADER
  5
467C
330
2
100
AcDbEntity
  8
R-ANNO-TEXT
100
AcDbLeader
  3
SCADARCH
 76
     3
 10
224.1549580495116
 20
29.54995214538832
 30
0.0
 10
240.4877959133346
 20
38.22857294361
 30
0.0
 10
244.0669197241286
 20
38.22857294361
 30
0.0
1001
ACAD
1000
DSTYLE
1002
{
1070
   341
1005
0
1070
    40
1040
16.0
1070
   343
1005
0
1070
   344
1005
28
1002
}
  0
LEADER
  5
467D
330
2
100
AcDbEntity
  8
R-ANNO-TEXT
100
AcDbLeader
  3
SCADARCH
 76
     3
 10
228.1633319692628
 20
28.52006229078487
 30
0.0
 10
240.2700896198555
 20
29.56905478312916
 30
0.0
 10
243.8492134306494
 20
29.56905478312916
 30
0.0
1001
ACAD
1000
DSTYLE
1002
{
1070
   341
1005
0
1070
    40
1040
16.0
1070
   343
1005
0
1070
   344
1005
28
1002
}
  0
LEADER
  5
467F
330
2
100
AcDbEntity
  8
R-ANNO-TEXT
100
AcDbLeader
  3
SCADARCH
 76
     3
 10
223.2293954821828
 20
16.60200324197479
 30
0.0
 10
240.5569741353302
 20
19.70621665752722
 30
0.0
 10
244.136097946124
 20
19.70621665752722
 30
0.0
1001
ACAD
1000
DSTYLE
1002
{
1070
   341
1005
0
1070
    40
1040
16.0
1070
   343
1005
0
1070
   344
1005
28
1002
}
  0
TEXT
  5
4680
330
2
100
AcDbEntity
  8
R-ANNO-TEXT
100
AcDbText
 10
245.0516558070066
 20
10.32590363578513
 30
0.0
 40
1.5
  1
RESILIENT
  7
SWTSTEXT
100
AcDbText
  0
LEADER
  5
4681
330
2
100
AcDbEntity
  8
R-ANNO-TEXT
100
AcDbLeader
  3
SCADARCH
 76
     3
 10
219.1480121187989
 20
8.503881743738713
 30
0.0
 10
240.5569741353302
 20
11.22336660982567
 30
0.0
 10
244.136097946124
 20
11.22336660982567
 30
0.0
1001
ACAD
1000
DSTYLE
1002
{
1070
   341
1005
0
1070
    40
1040
16.0
1070
   343
1005
0
1070
   344
1005
28
1002
}
  0
TEXT
  5
4684
330
2
100
AcDbEntity
  8
R-ANNO-TEXT
100
AcDbText
 10
245.0516558070066
 20
43.6813810567327
 30
0.0
 40
1.5
  1
FIRM-FILL CSD
  7
SWTSTEXT
100
AcDbText
  0
TEXT
  5
4685
330
2
100
AcDbEntity
  8
R-ANNO-TEXT
100
AcDbText
 10
245.0516558070066
 20
34.99419074115802
 30
0.0
 40
1.5
  1
STEEL DECK
  7
SWTSTEXT
100
AcDbText
  0
TEXT
  5
4686
330
2
100
AcDbEntity
  8
R-ANNO-TEXT
100
AcDbText
 10
245.0516558070066
 20
26.30889440371373
 30
0.0
 40
1.5
  1
STEEL FRAME
  7
SWTSTEXT
100
AcDbText
  0
TEXT
  5
4687
330
2
100
AcDbEntity
  8
R-ANNO-TEXT
100
AcDbText
 10
245.0516558070066
 20
16.05738292242702
 30
0.0
 40
1.5
  1
GYPSUM BOARD
  7
SWTSTEXT
100
AcDbText
  0
TEXT
  5
4689
330
2
100
AcDbEntity
  8
R-ANNO-TEXT
100
AcDbText
 10
245.0516558070066
 20
7.574532874725475
 30
0.0
 40
1.5
  1
CHANNEL
  7
SWTSTEXT
100
AcDbText
  0
TEXT
  5
468A
330
2
100
AcDbEntity
  8
R-ANNO-TEXT
100
AcDbText
 10
245.2042083482985
 20
-3.286809186765022
 30
0.0
 40
1.5
  1
BATT
  7
SWTSTEXT
100
AcDbText
  0
LEADER
  5
468B
330
2
100
AcDbEntity
  8
R-ANNO-TEXT
100
AcDbLeader
  3
SCADARCH
 76
     3
 10
198.2448421415228
 20
16.46686018658183
 30
0.0
 10
225.9849930370539
 20
-2.313104764777738
 30
0.0
 10
244.136097946124
 20
-2.313104764777738
 30
0.0
1001
ACAD
1000
DSTYLE
1002
{
1070
   341
1005
0
1070
    40
1040
16.0
1070
   343
1005
0
1070
   344
1005
28
1002
}
  0
TEXT
  5
468C
330
2
100
AcDbEntity
  8
R-ANNO-TEXT
100
AcDbText
 10
245.2042083482985
 20
-6.038179947824676
 30
0.0
 40
1.5
  1
INSULATION
  7
SWTSTEXT
100
AcDbText
  0
TEXT
  5
46B1
330
2
100
AcDbEntity
  8
R-ANNO-TEXT
100
AcDbText
 10
189.6867761403161
 20
-12.03261837653313
 30
0.0
 40
1.5
  1
CORRUGATED STEEL DECK
  7
SWTSTEXT
100
AcDbText
  0
ARC
  5
493B
330
2
100
AcDbEntity
  8
R-SWTS-DET1
100
AcDbCircle
 10
208.9644599335578
 20
21.18878338243966
 30
0.0
 40
2.435154308980914
100
AcDbArc
 50
179.574095636175
 51
293.6493632518043
  0
LINE
  5
493C
330
2
100
AcDbEntity
  8
R-SWTS-DET1
100
AcDbLine
 10
209.9412937816646
 20
18.95813949742774
 30
0.0
 11
214.1133716047089
 21
21.26252890635052
 31
0.0
  0
ARC
  5
493D
330
2
100
AcDbEntity
  8
R-SWTS-DET1
100
AcDbCircle
 10
212.2744113181694
 20
23.33565894154351
 30
0.0
 40
2.771216894847553
100
AcDbArc
 50
311.5744787673177
 51
7.284095281641225
  0
ARC
  5
493E
330
2
100
AcDbEntity
  8
R-SWTS-DET1
100
AcDbCircle
 10
221.8688275624165
 20
28.14634424264786
 30
0.0
 40
2.435154308980914
100
AcDbArc
 50
227.1869936205864
 51
293.6493632518043
  0
ARC
  5
493F
330
2
100
AcDbEntity
  8
R-SWTS-DET1
100
AcDbCircle
 10
224.4055657985511
 20
29.86614622696157
 30
0.0
 40
2.771216894847553
100
AcDbArc
 50
311.5744787673177
 51
13.07457699234821
  0
ARC
  5
4940
330
2
100
AcDbEntity
  8
R-SWTS-DET1
100
AcDbCircle
 10
209.3459062608709
 20
21.01808600062218
 30
0.0
 40
2.435154308980914
100
AcDbArc
 50
240.9691321432025
 51
293.6493632518043
  0
LINE
  5
4941
330
2
100
AcDbEntity
  8
R-SWTS-DET1
100
AcDbLine
 10
210.3227401089778
 20
18.78744211561026
 30
0.0
 11
214.494817932022
 21
21.09183152453304
 31
0.0
  0
ARC
  5
4942
330
2
100
AcDbEntity
  8
R-SWTS-DET1
100
AcDbCircle
 10
212.5308918812724
 20
23.1946636508238
 30
0.0
 40
2.877309243750782
100
AcDbArc
 50
313.0437393519905
 51
20.11465020560267
  0
ARC
  5
4943
330
2
100
AcDbEntity
  8
R-SWTS-DET1
100
AcDbCircle
 10
222.2502738897296
 20
27.97564686083039
 30
0.0
 40
2.435154308980914
100
AcDbArc
 50
240.9691321432041
 51
293.6493632518043
  0
LINE
  5
4944
330
2
100
AcDbEntity
  8
R-SWTS-DET1
100
AcDbLine
 10
223.2271077378362
 20
25.7450029758184
 30
0.0
 11
226.6259724124038
 21
27.62231880995111
 31
0.0
  0
ARC
  5
4945
330
2
100
AcDbEntity
  8
R-SWTS-DET1
100
AcDbCircle
 10
224.7870121258643
 20
29.6954488451441
 30
0.0
 40
2.771216894847553
100
AcDbArc
 50
311.5744787673177
 51
18.75013186408356
  0
ARC
  5
4946
330
2
100
AcDbEntity
  8
R-SWTS-DET1
100
AcDbCircle
 10
225.7644130210026
 20
30.26372872507764
 30
0.0
 40
1.360002890735036
100
AcDbArc
 50
9.707423975873176
 51
23.35509140453915
  0
LINE
  5
4947
330
2
100
AcDbEntity
  8
R-SWTS-DET1
100
AcDbLine
 10
222.8456614105232
 20
25.91570035763592
 30
0.0
 11
226.2445260850906
 21
27.79301619176859
 31
0.0
  0
LWPOLYLINE
  5
494A
330
2
100
AcDbEntity
  8
R-SWTS-PAT1
100
AcDbPolyline
 90
        9
 70
     0
 43
0.0
 10
184.9920231928155
 20
26.54127844924498
 10
185.5903930898669
 20
27.06461358850628
 10
186.0765683260086
 20
27.13937561827071
 10
186.861928510676
 20
27.5131863876997
 10
187.4602979193872
 20
27.99914051207875
 10
187.9090750980058
 20
27.84961614224648
 10
188.6570372251499
 20
28.37295128150774
 10
189.5545915823869
 20
28.37295128150774
 10
190.115562933575
 20
28.67200002117236
  0
LWPOLYLINE
  5
494B
330
2
100
AcDbEntity
  8
R-SWTS-PAT1
100
AcDbPolyline
 90
        4
 70
     0
 43
0.0
 10
186.151364441055
 20
26.09270565005156
 10
187.1237149133384
 20
26.69080281907729
 10
187.4228998618641
 20
26.6160404790094
 10
188.0960653856218
 20
26.91508921867397
  0
LWPOLYLINE
  5
494D
330
2
100
AcDbEntity
  8
R-SWTS-PAT1
100
AcDbPolyline
 90
        3
 70
     0
 43
0.0
 10
188.9253589211119
 20
27.24726431319324
 42
0.4046314475080037
 10
189.4598842243564
 20
27.14289187619189
 42
0.0414198980078885
 10
190.3046356109825
 20
27.79707682130227
 42
3.096171890342914
  0
LWPOLYLINE
  5
494E
330
2
100
AcDbEntity
  8
R-SWTS-PAT1
100
AcDbPolyline
 90
        9
 70
     0
 43
0.0
 10
186.2501040672308
 20
23.83024357938657
 10
187.5350940344336
 20
23.58817330869523
 10
187.7968809254362
 20
23.17698152438402
 10
188.2456581040546
 20
22.76578942976935
 10
188.844027512766
 20
22.72840841488713
 10
189.8911745884358
 20
22.50412201529045
 10
190.4147478821007
 20
22.31721663057593
 10
190.4147478821007
 20
22.05554890579357
 10
190.6516620643353
 20
22.01044301555459
  0
LWPOLYLINE
  5
494F
330
2
100
AcDbEntity
  8
R-SWTS-PAT1
100
AcDbPolyline
 90
        9
 70
     0
 43
0.0
 10
186.5929987878213
 20
21.14215369038594
 10
187.572492091957
 20
20.52292481319538
 10
188.320454219101
 20
20.29863841359865
 10
188.6944352826731
 20
19.77530327433738
 10
189.0684163462452
 20
19.8500653041018
 10
189.4423974098174
 20
19.51363585985844
 10
189.7415818700029
 20
19.36411149002617
 10
190.4895439971472
 20
19.06506275036155
 10
190.7694573302675
 20
18.98512390372779
  0
LWPOLYLINE
  5
4950
330
2
100
AcDbEntity
  8
R-SWTS-PAT1
100
AcDbPolyline
 90
        9
 70
     0
 43
0.0
 10
196.3562251721073
 20
19.10713358468833
 10
197.7073774009063
 20
18.50434659621808
 10
198.1561545795247
 20
18.42958456645366
 10
198.4553395280504
 20
17.79410607224231
 10
199.0911069942849
 20
17.94363044207457
 10
200.0634574665684
 20
17.64458170241
 10
200.4748365876636
 20
17.19600890321658
 10
200.8488176512357
 20
16.8595791486698
 10
200.9593736520427
 20
16.83747802331455
  0
SPLINE
  5
4952
330
2
100
AcDbEntity
  8
R-SWTS-PAT1
100
AcDbSpline
210
0.0
220
0.0
230
1.0
 70
     8
 71
     3
 72
    16
 73
    12
 74
     0
 42
0.0000000001
 43
0.0000000001
 40
0.0
 40
0.0
 40
0.0
 40
0.0
 40
0.3561097726391074
 40
0.7464440221915933
 40
1.09375532686926
 40
1.577385331324647
 40
1.945767470909481
 40
2.449516239692612
 40
2.843163902136865
 40
3.163084444289501
 40
3.375374436283018
 40
3.375374436283018
 40
3.375374436283018
 40
3.375374436283018
 10
196.7350269286228
 20
16.37362502429075
 30
0.0
 10
196.841871970657
 20
16.18889647559097
 30
0.0
 10
197.0658305616729
 20
15.80168575715663
 30
0.0
 10
197.738078246055
 20
15.91424403599469
 30
0.0
 10
198.3719518629355
 20
15.63560321819019
 30
0.0
 10
198.723033814529
 20
15.02570691560872
 30
0.0
 10
199.4782039093782
 20
14.82116572250208
 30
0.0
 10
200.0814745675263
 20
14.62542241200044
 30
0.0
 10
201.0021695418217
 20
15.11666608822967
 30
0.0
 10
200.8108708740887
 20
14.347523653032
 30
0.0
 10
200.9709652223422
 20
14.17366409786638
 30
0.0
 10
201.0646401887994
 20
14.13393248751054
 30
0.0
  0
SPLINE
  5
4953
330
2
100
AcDbEntity
  8
R-SWTS-PAT1
100
AcDbSpline
210
0.0
220
0.0
230
1.0
 70
     8
 71
     3
 72
     9
 73
     5
 74
     3
 42
0.0000000001
 43
0.0000000001
 44
0.0000000001
 13
0.5409318784418541
 23
0.8410664081303968
 33
0.0
 40
0.0
 40
0.0
 40
0.0
 40
0.0
 40
0.958534717127909
 40
1.61265537617962
 40
1.61265537617962
 40
1.61265537617962
 40
1.61265537617962
 10
187.4228998618641
 20
25.00865435664679
 30
0.0
 10
187.7136788284801
 20
24.82233639220388
 30
0.0
 10
188.202890387972
 20
24.50887182835586
 30
0.0
 10
188.7634806646797
 20
24.82526805224928
 30
0.0
 10
188.8814255702892
 20
25.00865435664679
 30
0.0
 11
187.4228998618641
 21
25.00865435664679
 31
0.0
 11
188.320454219101
 21
24.6722246021
 31
0.0
 11
188.8814255702892
 21
25.00865435664679
 31
0.0
  0
SPLINE
  5
4954
330
2
100
AcDbEntity
  8
R-SWTS-PAT1
100
AcDbSpline
210
0.0
220
0.0
230
1.0
 70
     8
 71
     3
 72
    10
 73
     6
 74
     0
 42
0.0000000001
 43
0.0000000001
 40
0.0
 40
0.0
 40
0.0
 40
0.0
 40
0.727483902605766
 40
1.261692568281905
 40
1.347501334619829
 40
1.347501334619829
 40
1.347501334619829
 40
1.347501334619829
 10
188.7318333401963
 20
26.24222970958041
 30
0.0
 10
189.0829402525245
 20
26.05316038644367
 30
0.0
 10
189.6918732892143
 20
25.7252529797818
 30
0.0
 10
190.2022469639653
 20
25.15572986957472
 30
0.0
 10
190.494556841632
 20
25.00120388046644
 30
0.0
 10
190.5359749102123
 20
24.98161979070726
 30
0.0
  0
SPLINE
  5
4955
330
2
100
AcDbEntity
  8
R-SWTS-PAT1
100
AcDbSpline
210
0.0
220
0.0
230
1.0
 70
     8
 71
     3
 72
    10
 73
     6
 74
     0
 42
0.0000000001
 43
0.0000000001
 40
0.0
 40
0.0
 40
0.0
 40
0.0
 40
0.6489755530384608
 40
1.036501453106357
 40
1.213654005916068
 40
1.213654005916068
 40
1.213654005916068
 40
1.213654005916068
 10
189.0684163462452
 20
23.55079229381302
 30
0.0
 10
189.4726463589258
 20
23.82535686248685
 30
0.0
 10
190.1182561874791
 20
24.26387349546251
 30
0.0
 10
190.2680612620988
 20
23.32197116407078
 30
0.0
 10
190.5146736400316
 20
23.2400178302463
 30
0.0
 10
190.6038610165854
 20
23.23811054683134
 30
0.0
  0
SPLINE
  5
4956
330
2
100
AcDbEntity
  8
R-SWTS-PAT1
100
AcDbSpline
210
0.0
220
0.0
230
1.0
 70
     8
 71
     3
 72
    10
 73
     6
 74
     4
 42
0.0000000001
 43
0.0000000001
 44
0.0000000001
 40
0.0
 40
0.0
 40
0.0
 40
0.0
 40
0.8543860950444123
 40
1.643038553514427
 40
2.171922619197554
 40
2.171922619197554
 40
2.171922619197554
 40
2.171922619197554
 10
185.7399853199597
 20
22.57888404505487
 30
0.0
 10
186.0446729418826
 20
22.80750147711099
 30
0.0
 10
186.63060652917
 20
23.24714727314207
 30
0.0
 10
186.7759737077117
 20
22.12012825408078
 30
0.0
 10
187.264281814872
 20
22.15406814640992
 30
0.0
 10
187.4602979193872
 20
22.16769226074362
 30
0.0
 11
185.7399853199597
 21
22.57888404505487
 31
0.0
 11
186.5253455046272
 21
22.91531379960165
 31
0.0
 11
186.9367246257224
 21
22.24245429050804
 31
0.0
 11
187.4602979193872
 21
22.16769226074362
 31
0.0
  0
SPLINE
  5
4957
330
2
100
AcDbEntity
  8
R-SWTS-PAT1
100
AcDbSpline
210
0.0
220
0.0
230
1.0
 70
     8
 71
     3
 72
    11
 73
     7
 74
     5
 42
0.0000000001
 43
0.0000000001
 44
0.0000000001
 40
0.0
 40
0.0
 40
0.0
 40
0.0
 40
0.9813963814017357
 40
1.894263447905959
 40
2.450111693935619
 40
2.562306354845284
 40
2.562306354845284
 40
2.562306354845284
 40
2.562306354845284
 10
187.9464731555289
 20
22.20507327562583
 30
0.0
 10
188.1367430379613
 20
21.98594613380711
 30
0.0
 10
188.5039965660559
 20
21.56299314248018
 30
0.0
 10
189.2920360906799
 20
20.58108229989422
 30
0.0
 10
189.5869042982089
 20
21.32984169700634
 30
0.0
 10
189.8154015014495
 20
21.31107854925833
 30
0.0
 10
189.8537765309126
 20
21.30792736693558
 30
0.0
 11
187.9464731555289
 21
22.20507327562583
 31
0.0
 11
188.5822411101036
 21
21.45745173676784
 31
0.0
 11
189.3302027489076
 21
20.93411659750658
 31
0.0
 11
189.7415818700029
 21
21.30792736693558
 31
0.0
 11
189.8537765309126
 21
21.30792736693558
 31
0.0
  0
SPLINE
  5
4958
330
2
100
AcDbEntity
  8
R-SWTS-PAT1
100
AcDbSpline
210
0.0
220
0.0
230
1.0
 70
     8
 71
     3
 72
    11
 73
     7
 74
     5
 42
0.0000000001
 43
0.0000000001
 44
0.0000000001
 40
0.0
 40
0.0
 40
0.0
 40
0.0
 40
0.6131991902404037
 40
1.248966656474943
 40
2.186903423512242
 40
2.32172553976596
 40
2.32172553976596
 40
2.32172553976596
 40
2.32172553976596
 10
195.9122686864323
 20
17.86886841231015
 30
0.0
 10
196.0169767129586
 20
17.66904240979795
 30
0.0
 10
196.2302464560993
 20
17.26203597827191
 30
0.0
 10
197.038478026798
 20
17.37402011091785
 30
0.0
 10
197.6380780013548
 20
17.62359771778295
 30
0.0
 10
197.932199687156
 20
17.40978573537194
 30
0.0
 10
197.9691642919087
 20
17.3829142879311
 30
0.0
 11
195.9122686864323
 21
17.86886841231015
 31
0.0
 11
196.2862497500043
 21
17.3829142879311
 31
0.0
 11
196.9220172162389
 21
17.3829142879311
 31
0.0
 11
197.856969630999
 21
17.45767631769552
 31
0.0
 11
197.9691642919087
 21
17.3829142879311
 31
0.0
  0
SPLINE
  5
4959
330
2
100
AcDbEntity
  8
R-SWTS-PAT1
100
AcDbSpline
210
0.0
220
0.0
230
1.0
 70
     8
 71
     3
 72
     9
 73
     5
 74
     3
 42
0.0000000001
 43
0.0000000001
 44
0.0000000001
 40
0.0
 40
0.0
 40
0.0
 40
0.0
 40
0.5313816657659034
 40
1.220954009336576
 40
1.220954009336576
 40
1.220954009336576
 40
1.220954009336576
 10
199.3154958277642
 20
17.12124656314874
 30
0.0
 10
199.4144770235523
 20
16.96271411531225
 30
0.0
 10
199.6419058108672
 20
16.5984546004174
 30
0.0
 10
200.0786048059176
 20
16.57421850784266
 30
0.0
 10
200.3252443575708
 20
16.56053040900522
 30
0.0
 11
199.3154958277642
 21
17.12124656314874
 31
0.0
 11
199.6520783454729
 21
16.71005477883753
 31
0.0
 11
200.3252443575708
 21
16.56053040900522
 31
0.0
  0
SPLINE
  5
495A
330
2
100
AcDbEntity
  8
R-SWTS-PAT1
100
AcDbSpline
210
0.0
220
0.0
230
1.0
 70
     8
 71
     3
 72
    12
 73
     8
 74
     6
 42
0.0000000001
 43
0.0000000001
 44
0.0000000001
 40
0.0
 40
0.0
 40
0.0
 40
0.0
 40
1.222664276976866
 40
2.201231638859117
 40
3.136150704872354
 40
3.628040653267157
 40
4.398969032655383
 40
4.398969032655383
 40
4.398969032655383
 40
4.398969032655383
 10
194.9025196682856
 20
21.79388149131462
 30
0.0
 10
195.3129018168717
 20
21.90737066719969
 30
0.0
 10
196.0517360058643
 20
22.1116916482984
 30
0.0
 10
196.6000778601121
 20
23.07464122517764
 30
0.0
 10
197.452842272994
 20
23.34233052944337
 30
0.0
 10
198.1791723553002
 20
23.08505206467363
 30
0.0
 10
198.5596482212114
 20
23.32782273141224
 30
0.0
 10
198.7919220457591
 20
23.47602995374513
 30
0.0
 11
194.9025196682856
 21
21.79388149131462
 31
0.0
 11
196.0244628590018
 21
22.27983561569372
 31
0.0
 11
196.6976288710997
 21
22.9900761396695
 31
0.0
 11
197.5951832283366
 21
23.25174355414844
 31
0.0
 11
198.0813584644782
 21
23.17698152438402
 31
0.0
 11
198.7919220457591
 21
23.47602995374513
 31
0.0
  0
SPLINE
  5
495B
330
2
100
AcDbEntity
  8
R-SWTS-PAT1
100
AcDbSpline
210
0.0
220
0.0
230
1.0
 70
     8
 71
     3
 72
     9
 73
     5
 74
     0
 42
0.0000000001
 43
0.0000000001
 40
0.0
 40
0.0
 40
0.0
 40
0.0
 40
0.2884336437442407
 40
0.5465386701703016
 40
0.5465386701703016
 40
0.5465386701703016
 40
0.5465386701703016
 10
199.2406997127178
 20
23.7750786934097
 30
0.0
 10
199.4102851361885
 20
23.7995928824343
 30
0.0
 10
199.7316241818727
 20
23.84604360883319
 30
0.0
 10
199.837610764108
 20
24.16530387455589
 30
0.0
 10
199.9008927436088
 20
24.2977958333062
 30
0.0
  0
SPLINE
  5
495C
330
2
100
AcDbEntity
  8
R-SWTS-PAT1
100
AcDbSpline
210
0.0
220
0.0
230
1.0
 70
     8
 71
     3
 72
    11
 73
     7
 74
     5
 42
0.0000000001
 43
0.0000000001
 44
0.0000000001
 40
0.0
 40
0.0
 40
0.0
 40
0.0
 40
0.9378717136572939
 40
1.529160542986121
 40
2.560610466898793
 40
2.747601242854925
 40
2.747601242854925
 40
2.747601242854925
 40
2.747601242854925
 10
196.959415273762
 20
21.68173813636457
 30
0.0
 10
197.235826368772
 20
21.90503136584909
 30
0.0
 10
197.6865030807123
 20
22.26910162308305
 30
0.0
 10
198.5788252724425
 20
21.56078373291267
 30
0.0
 10
198.8323773507501
 20
22.6233739439981
 30
0.0
 10
199.2512175613033
 20
22.58480336653635
 30
0.0
 10
199.3154958277642
 20
22.57888404505487
 30
0.0
 11
196.959415273762
 21
21.68173813636457
 31
0.0
 11
197.8195715734758
 21
22.05554890579357
 31
0.0
 11
198.3805429246639
 21
21.86864352107904
 31
0.0
 11
199.128505051808
 21
22.57888404505487
 31
0.0
 11
199.3154958277642
 21
22.57888404505487
 31
0.0
  0
SPLINE
  5
495D
330
2
100
AcDbEntity
  8
R-SWTS-PAT1
100
AcDbSpline
210
0.0
220
0.0
230
1.0
 70
     8
 71
     3
 72
    11
 73
     7
 74
     0
 42
0.0000000001
 43
0.0000000001
 40
0.0
 40
0.0
 40
0.0
 40
0.0
 40
0.3605422516036418
 40
0.714540403313773
 40
0.9744983277063866
 40
1.157699930701543
 40
1.157699930701543
 40
1.157699930701543
 40
1.157699930701543
 10
200.0634574665684
 20
23.21436253926624
 30
0.0
 10
200.2468862333985
 20
23.10790733892262
 30
0.0
 10
200.6104144036679
 20
22.89692917630775
 30
0.0
 10
201.1634372501183
 20
23.31874150982276
 30
0.0
 10
201.4931712576097
 20
22.95116854738164
 30
0.0
 10
201.6679436165532
 20
22.74548289263215
 30
0.0
 10
201.7436044065936
 20
22.67247386943455
 30
0.0
  0
SPLINE
  5
495E
330
2
100
AcDbEntity
  8
R-SWTS-PAT1
100
AcDbSpline
210
0.0
220
0.0
230
1.0
 70
     8
 71
     3
 72
    11
 73
     7
 74
     5
 42
0.0000000001
 43
0.0000000001
 44
0.0000000001
 40
0.0
 40
0.0
 40
0.0
 40
0.0
 40
0.591288829328814
 40
1.598232442021447
 40
2.702472478703244
 40
3.442748550060746
 40
3.442748550060746
 40
3.442748550060746
 40
3.442748550060746
 10
196.3236478075276
 20
20.37340044336307
 30
0.0
 10
196.5096255689461
 20
20.29406489364772
 30
0.0
 10
197.0123167700147
 20
20.07962375579532
 30
0.0
 10
197.8998557875187
 20
20.34831908617797
 30
0.0
 10
198.7714172681347
 20
21.28205659130319
 30
0.0
 10
199.186360873789
 20
20.68698725719002
 30
0.0
 10
199.3528938852872
 20
20.44816278343095
 30
0.0
 11
196.3236478075276
 21
20.37340044336307
 31
0.0
 11
196.8846191587157
 21
20.18649505864859
 31
0.0
 11
197.856969630999
 21
20.44816278343095
 31
0.0
 11
198.8293205916225
 21
20.97149792269221
 31
0.0
 11
199.3528938852872
 21
20.44816278343095
 31
0.0
  0
SPLINE
  5
495F
330
2
100
AcDbEntity
  8
R-SWTS-PAT1
100
AcDbSpline
210
0.0
220
0.0
230
1.0
 70
     8
 71
     3
 72
    10
 73
     6
 74
     0
 42
0.0000000001
 43
0.0000000001
 40
0.0
 40
0.0
 40
0.0
 40
0.0
 40
0.7039098407709813
 40
0.9141453318854988
 40
1.289399751960733
 40
1.289399751960733
 40
1.289399751960733
 40
1.289399751960733
 10
198.8667186491457
 20
19.06506275036155
 30
0.0
 10
199.2056815600443
 20
19.32438191791593
 30
0.0
 10
199.6458819163015
 20
19.66115147668303
 30
0.0
 10
200.3387626194634
 20
19.44152916466278
 30
0.0
 10
200.6561878840843
 20
19.39312987316185
 30
0.0
 10
200.8604739154468
 20
19.37750593454075
 30
0.0
  0
LINE
  5
498B
330
2
100
AcDbEntity
  8
R-SWTS-DET1
100
AcDbLine
 10
181.7259696164462
 20
21.82389742239825
 30
0.0
 11
181.7080472854508
 21
22.28419410800667
 31
0.0
  0
LINE
  5
498C
330
2
100
AcDbEntity
  8
R-SWTS-DET1
100
AcDbLine
 10
182.0899674376438
 20
21.27634531939744
 30
0.0
 11
182.0567000607218
 21
22.13074664364447
 31
0.0
  0
LINE
  5
498F
330
2
100
AcDbEntity
  8
R-SWTS-DET1
100
AcDbLine
 10
182.0567000607218
 20
22.13074664364447
 30
0.0
 11
182.9636733844769
 21
22.59372724223498
 31
0.0
  0
LINE
  5
4990
330
2
100
AcDbEntity
  8
R-SWTS-DET1
100
AcDbLine
 10
182.0899674376436
 20
21.27634531939744
 30
0.0
 11
183.651066560346
 21
22.0732360187793
 31
0.0
  0
LINE
  5
4991
330
2
100
AcDbEntity
  8
R-SWTS-DET1
100
AcDbLine
 10
181.7080472854509
 20
22.28419410800663
 30
0.0
 11
182.0567000607219
 21
22.13074664364443
 31
0.0
  0
LINE
  5
4992
330
2
100
AcDbEntity
  8
R-SWTS-DET1
100
AcDbLine
 10
181.7080472854508
 20
22.28419410800667
 30
0.0
 11
182.7372547750622
 21
22.80957130172751
 31
0.0
  0
LINE
  5
4993
330
2
100
AcDbEntity
  8
R-SWTS-DET1
100
AcDbLine
 10
181.7259696164462
 20
21.82389742239824
 30
0.0
 11
180.8799483236729
 21
22.21840363018065
 31
0.0
  0
LINE
  5
4994
330
2
100
AcDbEntity
  8
R-SWTS-DET1
100
AcDbLine
 10
182.0899674376438
 20
21.27634531939742
 30
0.0
 11
180.5459163085251
 21
21.99634818548833
 31
0.0
  0
LINE
  5
4995
330
2
100
AcDbEntity
  8
R-SWTS-DET1
100
AcDbLine
 10
192.019151058954
 20
17.02410808897804
 30
0.0
 11
192.0012287279586
 21
17.48440477458646
 31
0.0
  0
LINE
  5
4996
330
2
100
AcDbEntity
  8
R-SWTS-DET1
100
AcDbLine
 10
192.3831488801516
 20
16.47655598597722
 30
0.0
 11
192.3498815032297
 21
17.33095731022426
 31
0.0
  0
LINE
  5
4997
330
2
100
AcDbEntity
  8
R-SWTS-DET1
100
AcDbLine
 10
192.3498815032297
 20
17.33095731022426
 30
0.0
 11
193.1109173726015
 21
17.71944155019266
 31
0.0
  0
LINE
  5
4998
330
2
100
AcDbEntity
  8
R-SWTS-DET1
100
AcDbLine
 10
192.3831488801515
 20
16.47655598597722
 30
0.0
 11
193.9442480028539
 21
17.27344668535909
 31
0.0
  0
LINE
  5
4999
330
2
100
AcDbEntity
  8
R-SWTS-DET1
100
AcDbLine
 10
192.0012287279588
 20
17.48440477458642
 30
0.0
 11
192.3498815032298
 21
17.33095731022421
 31
0.0
  0
LINE
  5
499A
330
2
100
AcDbEntity
  8
R-SWTS-DET1
100
AcDbLine
 10
192.0012287279586
 20
17.48440477458646
 30
0.0
 11
192.9314686960137
 21
17.95926224388869
 31
0.0
  0
LINE
  5
499B
330
2
100
AcDbEntity
  8
R-SWTS-DET1
100
AcDbLine
 10
190.839097751033
 20
17.19655885206812
 30
0.0
 11
192.3831488801516
 21
16.47655598597722
 31
0.0
  0
POINT
  5
49AD
330
2
100
AcDbEntity
  8
0
100
AcDbPoint
 10
167.3297240818015
 20
-19.43411935993777
 30
0.0
  0
POINT
  5
49AE
330
2
100
AcDbEntity
  8
0
100
AcDbPoint
 10
275.0656433079307
 20
64.33905656536126
 30
0.0
  0
ENDSEC
  0
SECTION
  2
OBJECTS
  0
DICTIONARY
  5
1F
330
0
100
AcDbDictionary
281
     1
  3
ACAD_COLOR
350
125
  3
ACAD_GROUP
350
1D
  3
ACAD_IMAGE_DICT
350
C9
  3
ACAD_IMAGE_VARS
350
CA
  3
ACAD_LAYOUT
350
89
  3
ACAD_MATERIAL
350
124
  3
ACAD_MLEADERSTYLE
350
4A00
  3
ACAD_MLINESTYLE
350
1E
  3
ACAD_PLOTSETTINGS
350
8A
  3
ACAD_PLOTSTYLENAME
350
87
  3
ACAD_SCALELIST
350
49DE
  3
ACAD_TABLESTYLE
350
126
  3
ACAD_VISUALSTYLE
350
49CD
  3
ACDB_RECOMPOSE_DATA
350
4A16
  3
AcDbVariableDictionary
350
D2
  3
DWGPROPS
350
4A17
  0
DICTIONARY
  5
13C
330
F
100
AcDbDictionary
280
     1
281
     1
  3
ACAD_LAYERFILTERS
360
13E
  3
ACLYDICTIONARY
360
13D
  0
DICTIONARY
  5
4A07
330
7
100
AcDbDictionary
280
     1
281
     1
  3
ADSK_XREC_LAYER_RECONCILED
360
4A08
  0
DICTIONARY
  5
4A09
330
2D
100
AcDbDictionary
280
     1
281
     1
  3
ADSK_XREC_LAYER_RECONCILED
360
4A0A
  0
DICTIONARY
  5
4A0B
330
22
100
AcDbDictionary
280
     1
281
     1
  3
ADSK_XREC_LAYER_RECONCILED
360
4A0C
  0
DICTIONARY
  5
4A0D
330
CE
100
AcDbDictionary
280
     1
281
     1
  3
ADSK_XREC_LAYER_RECONCILED
360
4A0E
  0
DICTIONARY
  5
4A0F
330
D1
100
AcDbDictionary
280
     1
281
     1
  3
ADSK_XREC_LAYER_RECONCILED
360
4A10
  0
DICTIONARY
  5
3
330
2
100
AcDbDictionary
280
     1
281
     1
  3
ACAD_LAYOUTSELFREF
360
474F
  3
ACAD_SORTENTS
360
5
  0
DICTIONARY
  5
B
330
A
100
AcDbDictionary
280
     1
281
     1
  3
ACAD_LAYOUTSELFREF
360
4750
  0
DICTIONARY
  5
125
102
{ACAD_REACTORS
330
1F
102
}
330
1F
100
AcDbDictionary
281
     1
  0
DICTIONARY
  5
1D
102
{ACAD_REACTORS
330
1F
102
}
330
1F
100
AcDbDictionary
281
     1
  0
DICTIONARY
  5
C9
102
{ACAD_REACTORS
330
1F
102
}
330
1F
100
AcDbDictionary
281
     1
  0
RASTERVARIABLES
  5
CA
102
{ACAD_REACTORS
330
1F
102
}
330
1F
100
AcDbRasterVariables
 90
        0
 70
     1
 71
     1
 72
     0
  0
DICTIONARY
  5
89
102
{ACAD_REACTORS
330
1F
102
}
330
1F
100
AcDbDictionary
281
     1
  3
Layout1
350
8C
  3
Model
350
8B
  0
DICTIONARY
  5
124
102
{ACAD_REACTORS
330
1F
102
}
330
1F
100
AcDbDictionary
281
     1
  3
ByBlock
350
49BD
  3
ByLayer
350
49B5
  3
Global
350
49C5
  0
DICTIONARY
  5
4A00
102
{ACAD_REACTORS
330
1F
102
}
330
1F
100
AcDbDictionary
281
     1
  3
Standard
350
4A01
  0
DICTIONARY
  5
1E
102
{ACAD_REACTORS
330
1F
102
}
330
1F
100
AcDbDictionary
281
     1
  3
STANDARD
350
24
  0
DICTIONARY
  5
8A
102
{ACAD_REACTORS
330
1F
102
}
330
1F
100
AcDbDictionary
281
     1
  0
ACDBDICTIONARYWDFLT
  5
87
102
{ACAD_REACTORS
330
1F
102
}
330
1F
100
AcDbDictionary
281
     1
  3
Normal
350
88
100
AcDbDictionaryWithDefault
340
88
  0
DICTIONARY
  5
49DE
102
{ACAD_REACTORS
330
1F
102
}
330
1F
100
AcDbDictionary
281
     1
  3
A0
350
49DF
  3
A1
350
49E0
  3
A2
350
49E1
  3
A3
350
49E2
  3
A4
350
49E3
  3
A5
350
49E4
  3
A6
350
49E5
  3
A7
350
49E6
  3
A8
350
49E7
  3
A9
350
49E8
  3
B0
350
49E9
  3
B1
350
49EA
  3
B2
350
49EB
  3
B3
350
49EC
  3
B4
350
49ED
  3
B5
350
49EE
  3
B6
350
49EF
  3
B7
350
49F0
  3
B8
350
49F1
  3
B9
350
49F2
  3
C0
350
49F3
  3
C1
350
49F4
  3
C2
350
49F5
  3
C3
350
49F6
  3
C4
350
49F7
  3
C5
350
49F8
  3
C6
350
49F9
  3
C7
350
49FA
  3
C8
350
49FB
  3
C9
350
49FC
  3
D0
350
49FD
  3
D1
350
49FE
  3
D2
350
49FF
  0
DICTIONARY
  5
126
102
{ACAD_REACTORS
330
1F
102
}
330
1F
100
AcDbDictionary
281
     1
  3
Standard
350
127
  0
DICTIONARY
  5
49CD
102
{ACAD_REACTORS
330
1F
102
}
330
1F
100
AcDbDictionary
281
     1
  3
2dWireframe
350
49D3
  3
3D Hidden
350
49D5
  3
3dWireframe
350
49D4
  3
Basic
350
49D2
  3
Brighten
350
49D9
  3
ColorChange
350
49DD
  3
Conceptual
350
49D6
  3
Dim
350
49D8
  3
Facepattern
350
49DC
  3
Flat
350
49CE
  3
FlatWithEdges
350
49CF
  3
Gouraud
350
49D0
  3
GouraudWithEdges
350
49D1
  3
Linepattern
350
49DB
  3
Realistic
350
49D7
  3
Thicken
350
49DA
  0
XRECORD
  5
4A16
102
{ACAD_REACTORS
330
1F
102
}
330
1F
100
AcDbXrecord
280
     1
 90
        1
330
127
  0
DICTIONARY
  5
D2
102
{ACAD_REACTORS
330
1F
102
}
330
1F
100
AcDbDictionary
281
     1
  3
CANNOSCALE
350
4A12
  3
CMLEADERSTYLE
350
4A11
  3
CTABLESTYLE
350
131
  3
DIMASSOC
350
356
  3
INDEXCTL
350
4A13
  3
PROJECTNAME
350
357
  3
SORTENTS
350
D3
  0
XRECORD
  5
4A17
102
{ACAD_REACTORS
330
1F
102
}
330
1F
100
AcDbXrecord
280
     1
  1
DWGPROPS COOKIE
  2

  3

  4

  6

  7

  8
Alex Usvitsky
  9

300
=
301
=
302
=
303
=
304
=
305
=
306
=
307
=
308
=
309
=
 40
0.9600554166666666
 41
2451557.449502315
 42
2456274.708503322
  1

 90
        0
  0
DICTIONARY
  5
13E
102
{ACAD_REACTORS
330
13C
102
}
330
13C
100
AcDbDictionary
281
     1
  0
DICTIONARY
  5
13D
102
{ACAD_REACTORS
330
13C
102
}
330
13C
100
AcDbDictionary
281
     1
1001
ACAD
1000
<All
  0
XRECORD
  5
4A08
102
{ACAD_REACTORS
330
4A07
102
}
330
4A07
100
AcDbXrecord
280
     1
290
     1
  0
XRECORD
  5
4A0A
102
{ACAD_REACTORS
330
4A09
102
}
330
4A09
100
AcDbXrecord
280
     1
290
     1
  0
XRECORD
  5
4A0C
102
{ACAD_REACTORS
330
4A0B
102
}
330
4A0B
100
AcDbXrecord
280
     1
290
     1
  0
XRECORD
  5
4A0E
102
{ACAD_REACTORS
330
4A0D
102
}
330
4A0D
100
AcDbXrecord
280
     1
290
     1
  0
XRECORD
  5
4A10
102
{ACAD_REACTORS
330
4A0F
102
}
330
4A0F
100
AcDbXrecord
280
     1
290
     1
  0
XRECORD
  5
474F
102
{ACAD_REACTORS
330
3
102
}
330
3
100
AcDbXrecord
280
     1
340
2
  0
SORTENTSTABLE
  5
5
102
{ACAD_REACTORS
330
3
102
}
330
3
100
AcDbSortentsTable
330
2
331
A50
  5
A7C
331
9DA
  5
9DB
331
A19
  5
A1A
331
AAF
  5
AB2
331
9E2
  5
9E3
331
A21
  5
A22
331
9EA
  5
9EB
331
A29
  5
A2B
331
A80
  5
A8D
331
9F2
  5
9F3
331
9FA
  5
9FB
331
A31
  5
A37
331
A90
  5
A9A
331
A02
  5
A03
331
A39
  5
A3F
331
A0A
  5
A0B
331
AA0
  5
A34
331
9D3
  5
9D3
331
A12
  5
A13
331
AA8
  5
A4E
331
A51
  5
A7D
331
9DB
  5
9DC
331
A22
  5
A23
331
9E3
  5
9E4
331
9EB
  5
9EC
331
A2A
  5
A2D
331
9F3
  5
9F4
331
A32
  5
A38
331
9FB
  5
9FC
331
A91
  5
A9B
331
A03
  5
A04
331
A3A
  5
A40
331
A0B
  5
A0C
331
A42
  5
A50
331
6CC
  5
6CC
331
A13
  5
A14
331
A4A
  5
A53
331
9D4
  5
9D4
331
AA9
  5
A4F
331
9DC
  5
9DD
331
A1B
  5
A1C
331
A52
  5
A7E
331
A23
  5
A24
331
9E4
  5
9E5
331
A2B
  5
A2F
331
A7A
  5
A83
331
9EC
  5
9ED
331
9F4
  5
9F5
331
A33
  5
A39
331
A8A
  5
A95
331
9FC
  5
9FD
331
A3B
  5
A41
331
A92
  5
A9C
331
A04
  5
A05
331
A9A
  5
AA2
331
6CD
  5
6CD
331
A0C
  5
A0D
331
A4B
  5
A56
331
9D5
  5
9D5
331
AAA
  5
AAB
331
9DD
  5
9DE
331
A1C
  5
A1D
331
AB2
  5
AB3
331
9E5
  5
9E6
331
A24
  5
A25
331
A2C
  5
A30
331
A7B
  5
A84
331
9ED
  5
9EE
331
A83
  5
A91
331
9F5
  5
9F6
331
9FD
  5
9FE
331
A34
  5
A3A
331
A8B
  5
A96
331
A3C
  5
A42
331
A93
  5
A9D
331
6C6
  5
6C6
331
A05
  5
A06
331
A9B
  5
AA3
331
6CE
  5
6CE
331
A0D
  5
A0E
331
9D6
  5
9D7
331
A15
  5
A16
331
A4C
  5
A57
331
9DE
  5
9DF
331
AAB
  5
AAD
331
AB3
  5
AB4
331
9E6
  5
9E7
331
A25
  5
A27
331
9EE
  5
9EF
331
A2D
  5
A32
331
A84
  5
A92
331
9F6
  5
9F7
331
A8C
  5
A94
331
9FE
  5
9FF
331
A35
  5
A3B
331
A06
  5
A07
331
A3D
  5
A47
331
6C7
  5
6C7
331
A94
  5
A9E
331
A9C
  5
AA4
331
6CF
  5
6CF
331
A0E
  5
A0F
331
A4D
  5
A58
331
9D7
  5
9D8
331
AA4
  5
AA8
331
A1E
  5
A1F
331
9DF
  5
9E0
331
AB4
  5
AB5
331
9E7
  5
9E8
331
A26
  5
A28
331
A7D
  5
A8A
331
9EF
  5
9F0
331
A2E
  5
A33
331
9F7
  5
9F8
331
9FF
  5
A00
331
A36
  5
A3C
331
A95
  5
A9F
331
A07
  5
A08
331
A3E
  5
A48
331
6C8
  5
6C8
331
A0F
  5
A10
331
A9D
  5
AA5
331
A4E
  5
A6A
331
AA5
  5
AA9
331
AAD
  5
AAF
331
9E0
  5
9E1
331
A27
  5
A29
331
9E8
  5
9E9
331
AB5
  5
AB6
331
A7E
  5
A8B
331
9F0
  5
9F1
331
A2F
  5
A35
331
A86
  5
A93
331
9F8
  5
9F9
331
A37
  5
A3D
331
A00
  5
A01
331
A96
  5
AA0
331
6C9
  5
6C9
331
A08
  5
A09
331
A3F
  5
A49
331
A9E
  5
AA6
331
A10
  5
A11
331
A47
  5
A52
331
A4F
  5
A7B
331
AA6
  5
AAA
331
9D9
  5
9DA
331
A18
  5
A19
331
9E1
  5
9E2
331
AB6
  5
AB7
331
A28
  5
A2A
331
A77
  5
A80
331
9E9
  5
9EA
331
9F1
  5
9F2
331
9F9
  5
9FA
331
A30
  5
A36
331
A38
  5
A3E
331
A8F
  5
A97
331
A01
  5
A02
331
A40
  5
A4C
331
A97
  5
AA1
331
6CA
  5
6CA
331
A09
  5
A0A
331
A9F
  5
AA7
331
A11
  5
A12
331
AA7
  5
A4D
  0
XRECORD
  5
4750
102
{ACAD_REACTORS
330
B
102
}
330
B
100
AcDbXrecord
280
     1
340
A
  0
LAYOUT
  5
8C
102
{ACAD_XDICTIONARY
360
4A1A
102
}
102
{ACAD_REACTORS
330
89
102
}
330
89
100
AcDbPlotSettings
  1

  2
Epson LQ-100 ESC/P 2
  4

  6

 40
0.0
 41
0.0
 42
0.0
 43
0.0
 44
0.0
 45
0.0
 46
0.0
 47
0.0
 48
0.0
 49
0.0
140
0.0
141
0.0
142
1.0
143
1.0
 70
   688
 72
     0
 73
     0
 74
     5
  7
Default R14 pen assignments.ctb
 75
    16
147
1.0
148
0.0
149
0.0
100
AcDbLayout
  1
Layout1
 70
     1
 71
     1
 10
0.0
 20
0.0
 11
12.0
 21
9.0
 12
0.0
 22
0.0
 32
0.0
 14
-19.52890750236171
 24
-45.690400130809
 34
0.0
 15
66.90942319586646
 25
22.73872795750724
 35
0.0
146
0.0
 13
0.0
 23
0.0
 33
0.0
 16
1.0
 26
0.0
 36
0.0
 17
0.0
 27
1.0
 37
0.0
 76
     0
330
A
  0
LAYOUT
  5
8B
102
{ACAD_XDICTIONARY
360
4A18
102
}
102
{ACAD_REACTORS
330
89
102
}
330
89
100
AcDbPlotSettings
  1

  2
Epson LQ-100 ESC/P 2
  4

  6

 40
0.0
 41
0.0
 42
0.0
 43
0.0
 44
0.0
 45
0.0
 46
0.0
 47
0.0
 48
0.0
 49
0.0
140
0.0
141
0.0
142
1.0
143
1.0
 70
  1712
 72
     0
 73
     0
 74
     0
  7
Default R14 pen assignments.ctb
 75
     0
147
1.0
148
0.0
149
0.0
100
AcDbLayout
  1
Model
 70
     1
 71
     0
 10
0.0
 20
0.0
 11
12.0
 21
9.0
 12
0.0
 22
0.0
 32
0.0
 14
0.0
 24
0.0
 34
0.0
 15
0.0
 25
0.0
 35
0.0
146
0.0
 13
0.0
 23
0.0
 33
0.0
 16
1.0
 26
0.0
 36
0.0
 17
0.0
 27
1.0
 37
0.0
 76
     0
330
2
331
49B3
  0
MATERIAL
  5
49BD
102
{ACAD_XDICTIONARY
360
49BE
102
}
102
{ACAD_REACTORS
330
124
102
}
330
124
100
AcDbMaterial
  1
ByBlock
 72
     0
 43
0.0208333333333333
 43
0.0
 43
0.0
 43
0.0
 43
0.0
 43
0.0208333333333333
 43
0.0
 43
0.0
 43
0.0
 43
0.0
 43
1.0
 43
0.0
 43
0.0
 43
0.0
 43
0.0
 43
1.0
 77
     0
 47
0.0208333333333333
 47
0.0
 47
0.0
 47
0.0
 47
0.0
 47
0.0208333333333333
 47
0.0
 47
0.0
 47
0.0
 47
0.0
 47
1.0
 47
0.0
 47
0.0
 47
0.0
 47
0.0
 47
1.0
171
     0
 49
0.0208333333333333
 49
0.0
 49
0.0
 49
0.0
 49
0.0
 49
0.0208333333333333
 49
0.0
 49
0.0
 49
0.0
 49
0.0
 49
1.0
 49
0.0
 49
0.0
 49
0.0
 49
0.0
 49
1.0
175
     0
142
0.0208333333333333
142
0.0
142
0.0
142
0.0
142
0.0
142
0.0208333333333333
142
0.0
142
0.0
142
0.0
142
0.0
142
1.0
142
0.0
142
0.0
142
0.0
142
0.0
142
1.0
179
     0
144
0.0208333333333333
144
0.0
144
0.0
144
0.0
144
0.0
144
0.0208333333333333
144
0.0
144
0.0
144
0.0
144
0.0
144
1.0
144
0.0
144
0.0
144
0.0
144
0.0
144
1.0
147
0.0208333333333333
147
0.0
147
0.0
147
0.0
147
0.0
147
0.0208333333333333
147
0.0
147
0.0
147
0.0
147
0.0
147
1.0
147
0.0
147
0.0
147
0.0
147
0.0
147
1.0
  0
MATERIAL
  5
49B5
102
{ACAD_XDICTIONARY
360
49B6
102
}
102
{ACAD_REACTORS
330
124
102
}
330
124
100
AcDbMaterial
  1
ByLayer
 72
     0
 43
0.0208333333333333
 43
0.0
 43
0.0
 43
0.0
 43
0.0
 43
0.0208333333333333
 43
0.0
 43
0.0
 43
0.0
 43
0.0
 43
1.0
 43
0.0
 43
0.0
 43
0.0
 43
0.0
 43
1.0
 77
     0
 47
0.0208333333333333
 47
0.0
 47
0.0
 47
0.0
 47
0.0
 47
0.0208333333333333
 47
0.0
 47
0.0
 47
0.0
 47
0.0
 47
1.0
 47
0.0
 47
0.0
 47
0.0
 47
0.0
 47
1.0
171
     0
 49
0.0208333333333333
 49
0.0
 49
0.0
 49
0.0
 49
0.0
 49
0.0208333333333333
 49
0.0
 49
0.0
 49
0.0
 49
0.0
 49
1.0
 49
0.0
 49
0.0
 49
0.0
 49
0.0
 49
1.0
175
     0
142
0.0208333333333333
142
0.0
142
0.0
142
0.0
142
0.0
142
0.0208333333333333
142
0.0
142
0.0
142
0.0
142
0.0
142
1.0
142
0.0
142
0.0
142
0.0
142
0.0
142
1.0
179
     0
144
0.0208333333333333
144
0.0
144
0.0
144
0.0
144
0.0
144
0.0208333333333333
144
0.0
144
0.0
144
0.0
144
0.0
144
1.0
144
0.0
144
0.0
144
0.0
144
0.0
144
1.0
147
0.0208333333333333
147
0.0
147
0.0
147
0.0
147
0.0
147
0.0208333333333333
147
0.0
147
0.0
147
0.0
147
0.0
147
1.0
147
0.0
147
0.0
147
0.0
147
0.0
147
1.0
  0
MATERIAL
  5
49C5
102
{ACAD_XDICTIONARY
360
49C6
102
}
102
{ACAD_REACTORS
330
124
102
}
330
124
100
AcDbMaterial
  1
Global
 72
     0
 43
0.0208333333333333
 43
0.0
 43
0.0
 43
0.0
 43
0.0
 43
0.0208333333333333
 43
0.0
 43
0.0
 43
0.0
 43
0.0
 43
1.0
 43
0.0
 43
0.0
 43
0.0
 43
0.0
 43
1.0
 77
     0
 47
0.0208333333333333
 47
0.0
 47
0.0
 47
0.0
 47
0.0
 47
0.0208333333333333
 47
0.0
 47
0.0
 47
0.0
 47
0.0
 47
1.0
 47
0.0
 47
0.0
 47
0.0
 47
0.0
 47
1.0
171
     0
 49
0.0208333333333333
 49
0.0
 49
0.0
 49
0.0
 49
0.0
 49
0.0208333333333333
 49
0.0
 49
0.0
 49
0.0
 49
0.0
 49
1.0
 49
0.0
 49
0.0
 49
0.0
 49
0.0
 49
1.0
175
     0
142
0.0208333333333333
142
0.0
142
0.0
142
0.0
142
0.0
142
0.0208333333333333
142
0.0
142
0.0
142
0.0
142
0.0
142
1.0
142
0.0
142
0.0
142
0.0
142
0.0
142
1.0
179
     0
144
0.0208333333333333
144
0.0
144
0.0
144
0.0
144
0.0
144
0.0208333333333333
144
0.0
144
0.0
144
0.0
144
0.0
144
1.0
144
0.0
144
0.0
144
0.0
144
0.0
144
1.0
147
0.0208333333333333
147
0.0
147
0.0
147
0.0
147
0.0
147
0.0208333333333333
147
0.0
147
0.0
147
0.0
147
0.0
147
1.0
147
0.0
147
0.0
147
0.0
147
0.0
147
1.0
  0
MLEADERSTYLE
  5
4A01
102
{ACAD_REACTORS
330
4A00
102
}
330
4A00
100
AcDbMLeaderStyle
170
     2
171
     1
172
     0
 90
        2
 40
0.0
 41
0.0
173
     1
 91
-1056964608
340
13
 92
       -2
290
     1
 42
0.09
291
     1
 43
0.36
  3
Standard
 44
0.18
300

342
11
174
     1
178
     6
175
     1
176
     0
 93
-1056964608
 45
0.18
292
     0
297
     0
 46
0.18
 94
-1056964608
 47
1.0
 49
1.0
140
1.0
293
     1
141
0.0
294
     1
177
     0
142
1.0
295
     0
296
     0
143
0.125
1001
ACAD_MLEADERVER
1070
     2
  0
MLINESTYLE
  5
24
102
{ACAD_REACTORS
330
1E
102
}
330
1E
100
AcDbMlineStyle
  2
STANDARD
 70
     0
  3

 62
   256
 51
90.0
 52
90.0
 71
     2
 49
0.5
 62
   256
  6
BYLAYER
 49
-0.5
 62
   256
  6
BYLAYER
  0
ACDBPLACEHOLDER
  5
88
102
{ACAD_REACTORS
330
87
102
}
330
87
  0
SCALE
  5
49DF
102
{ACAD_REACTORS
330
49DE
102
}
330
49DE
100
AcDbScale
 70
     0
300
1:1
140
1.0
141
1.0
290
     1
  0
SCALE
  5
49E0
102
{ACAD_REACTORS
330
49DE
102
}
330
49DE
100
AcDbScale
 70
     0
300
1:2
140
1.0
141
2.0
290
     0
  0
SCALE
  5
49E1
102
{ACAD_REACTORS
330
49DE
102
}
330
49DE
100
AcDbScale
 70
     0
300
1:4
140
1.0
141
4.0
290
     0
  0
SCALE
  5
49E2
102
{ACAD_REACTORS
330
49DE
102
}
330
49DE
100
AcDbScale
 70
     0
300
1:5
140
1.0
141
5.0
290
     0
  0
SCALE
  5
49E3
102
{ACAD_REACTORS
330
49DE
102
}
330
49DE
100
AcDbScale
 70
     0
300
1:8
140
1.0
141
8.0
290
     0
  0
SCALE
  5
49E4
102
{ACAD_REACTORS
330
49DE
102
}
330
49DE
100
AcDbScale
 70
     0
300
1:10
140
1.0
141
10.0
290
     0
  0
SCALE
  5
49E5
102
{ACAD_REACTORS
330
49DE
102
}
330
49DE
100
AcDbScale
 70
     0
300
1:16
140
1.0
141
16.0
290
     0
  0
SCALE
  5
49E6
102
{ACAD_REACTORS
330
49DE
102
}
330
49DE
100
AcDbScale
 70
     0
300
1:20
140
1.0
141
20.0
290
     0
  0
SCALE
  5
49E7
102
{ACAD_REACTORS
330
49DE
102
}
330
49DE
100
AcDbScale
 70
     0
300
1:30
140
1.0
141
30.0
290
     0
  0
SCALE
  5
49E8
102
{ACAD_REACTORS
330
49DE
102
}
330
49DE
100
AcDbScale
 70
     0
300
1:40
140
1.0
141
40.0
290
     0
  0
SCALE
  5
49E9
102
{ACAD_REACTORS
330
49DE
102
}
330
49DE
100
AcDbScale
 70
     0
300
1:50
140
1.0
141
50.0
290
     0
  0
SCALE
  5
49EA
102
{ACAD_REACTORS
330
49DE
102
}
330
49DE
100
AcDbScale
 70
     0
300
1:100
140
1.0
141
100.0
290
     0
  0
SCALE
  5
49EB
102
{ACAD_REACTORS
330
49DE
102
}
330
49DE
100
AcDbScale
 70
     0
300
2:1
140
2.0
141
1.0
290
     0
  0
SCALE
  5
49EC
102
{ACAD_REACTORS
330
49DE
102
}
330
49DE
100
AcDbScale
 70
     0
300
4:1
140
4.0
141
1.0
290
     0
  0
SCALE
  5
49ED
102
{ACAD_REACTORS
330
49DE
102
}
330
49DE
100
AcDbScale
 70
     0
300
8:1
140
8.0
141
1.0
290
     0
  0
SCALE
  5
49EE
102
{ACAD_REACTORS
330
49DE
102
}
330
49DE
100
AcDbScale
 70
     0
300
10:1
140
10.0
141
1.0
290
     0
  0
SCALE
  5
49EF
102
{ACAD_REACTORS
330
49DE
102
}
330
49DE
100
AcDbScale
 70
     0
300
100:1
140
100.0
141
1.0
290
     0
  0
SCALE
  5
49F0
102
{ACAD_REACTORS
330
49DE
102
}
330
49DE
100
AcDbScale
 70
     0
300
1/128" = 1'-0"
140
0.0078125
141
12.0
290
     0
  0
SCALE
  5
49F1
102
{ACAD_REACTORS
330
49DE
102
}
330
49DE
100
AcDbScale
 70
     0
300
1/64" = 1'-0"
140
0.015625
141
12.0
290
     0
  0
SCALE
  5
49F2
102
{ACAD_REACTORS
330
49DE
102
}
330
49DE
100
AcDbScale
 70
     0
300
1/32" = 1'-0"
140
0.03125
141
12.0
290
     0
  0
SCALE
  5
49F3
102
{ACAD_REACTORS
330
49DE
102
}
330
49DE
100
AcDbScale
 70
     0
300
1/16" = 1'-0"
140
0.0625
141
12.0
290
     0
  0
SCALE
  5
49F4
102
{ACAD_REACTORS
330
49DE
102
}
330
49DE
100
AcDbScale
 70
     0
300
3/32" = 1'-0"
140
0.09375
141
12.0
290
     0
  0
SCALE
  5
49F5
102
{ACAD_REACTORS
330
49DE
102
}
330
49DE
100
AcDbScale
 70
     0
300
1/8" = 1'-0"
140
0.125
141
12.0
290
     0
  0
SCALE
  5
49F6
102
{ACAD_REACTORS
330
49DE
102
}
330
49DE
100
AcDbScale
 70
     0
300
3/16" = 1'-0"
140
0.1875
141
12.0
290
     0
  0
SCALE
  5
49F7
102
{ACAD_REACTORS
330
49DE
102
}
330
49DE
100
AcDbScale
 70
     0
300
1/4" = 1'-0"
140
0.25
141
12.0
290
     0
  0
SCALE
  5
49F8
102
{ACAD_REACTORS
330
49DE
102
}
330
49DE
100
AcDbScale
 70
     0
300
3/8" = 1'-0"
140
0.375
141
12.0
290
     0
  0
SCALE
  5
49F9
102
{ACAD_REACTORS
330
49DE
102
}
330
49DE
100
AcDbScale
 70
     0
300
1/2" = 1'-0"
140
0.5
141
12.0
290
     0
  0
SCALE
  5
49FA
102
{ACAD_REACTORS
330
49DE
102
}
330
49DE
100
AcDbScale
 70
     0
300
3/4" = 1'-0"
140
0.75
141
12.0
290
     0
  0
SCALE
  5
49FB
102
{ACAD_REACTORS
330
49DE
102
}
330
49DE
100
AcDbScale
 70
     0
300
1" = 1'-0"
140
1.0
141
12.0
290
     0
  0
SCALE
  5
49FC
102
{ACAD_REACTORS
330
49DE
102
}
330
49DE
100
AcDbScale
 70
     0
300
1-1/2" = 1'-0"
140
1.5
141
12.0
290
     0
  0
SCALE
  5
49FD
102
{ACAD_REACTORS
330
49DE
102
}
330
49DE
100
AcDbScale
 70
     0
300
3" = 1'-0"
140
3.0
141
12.0
290
     0
  0
SCALE
  5
49FE
102
{ACAD_REACTORS
330
49DE
102
}
330
49DE
100
AcDbScale
 70
     0
300
6" = 1'-0"
140
6.0
141
12.0
290
     0
  0
SCALE
  5
49FF
102
{ACAD_REACTORS
330
49DE
102
}
330
49DE
100
AcDbScale
 70
     0
300
1'-0" = 1'-0"
140
12.0
141
12.0
290
     0
  0
TABLESTYLE
  5
127
102
{ACAD_XDICTIONARY
360
4A14
102
}
102
{ACAD_REACTORS
330
126
102
}
330
126
100
AcDbTableStyle
  3
Standard
 70
     0
 71
     0
 40
0.06
 41
0.06
280
     0
281
     0
  7
STANDARD
140
0.18
170
     2
 62
     0
 63
     7
283
     0
274
    -2
284
     1
 64
     0
275
    -2
285
     1
 65
     0
276
    -2
286
     1
 66
     0
277
    -2
287
     1
 67
     0
278
    -2
288
     1
 68
     0
279
    -2
289
     1
 69
     0
  7
STANDARD
140
0.25
170
     5
 62
     0
 63
     7
283
     0
274
    -2
284
     1
 64
     0
275
    -2
285
     1
 65
     0
276
    -2
286
     1
 66
     0
277
    -2
287
     1
 67
     0
278
    -2
288
     1
 68
     0
279
    -2
289
     1
 69
     0
  7
STANDARD
140
0.18
170
     5
 62
     0
 63
     7
283
     0
274
    -2
284
     1
 64
     0
275
    -2
285
     1
 65
     0
276
    -2
286
     1
 66
     0
277
    -2
287
     1
 67
     0
278
    -2
288
     1
 68
     0
279
    -2
289
     1
 69
     0
  0
VISUALSTYLE
  5
49D3
102
{ACAD_REACTORS
330
49CD
102
}
330
49CD
100
AcDbVisualStyle
  2
2dWireframe
 70
     4
 71
     0
 72
     2
 73
     0
 90
        0
 40
-0.6
 41
-30.0
 62
     5
 63
     7
 74
     1
 91
        4
 64
     7
 65
   257
 75
     1
175
     1
 42
1.0
 92
        0
 66
   257
 43
1.0
 76
     1
 77
     6
 78
     2
 67
     7
 79
     5
170
     0
171
     0
290
     0
174
     0
 93
        1
 44
0.0
173
     0
291
     0
 45
0.0
1001
ACAD
1000
AcDbSavedByObjectVersion
1070
     0
  0
VISUALSTYLE
  5
49D5
102
{ACAD_REACTORS
330
49CD
102
}
330
49CD
100
AcDbVisualStyle
  2
3D Hidden
 70
     6
 71
     1
 72
     2
 73
     2
 90
        0
 40
-0.6
 41
-30.0
 62
     5
 63
     7
 74
     2
 91
        2
 64
     7
 65
   257
 75
     2
175
     1
 42
40.0
 92
        0
 66
   257
 43
1.0
 76
     1
 77
     6
 78
     2
 67
     7
 79
     3
170
     0
171
     0
290
     0
174
     0
 93
        1
 44
0.0
173
     0
291
     0
 45
0.0
1001
ACAD
1000
AcDbSavedByObjectVersion
1070
     0
  0
VISUALSTYLE
  5
49D4
102
{ACAD_REACTORS
330
49CD
102
}
330
49CD
100
AcDbVisualStyle
  2
3dWireframe
 70
     5
 71
     0
 72
     2
 73
     0
 90
        0
 40
-0.6
 41
-30.0
 62
     5
 63
     7
 74
     1
 91
        4
 64
     7
 65
   257
 75
     1
175
     1
 42
1.0
 92
        0
 66
   257
 43
1.0
 76
     1
 77
     6
 78
     2
 67
     7
 79
     5
170
     0
171
     0
290
     0
174
     0
 93
        1
 44
0.0
173
     0
291
     0
 45
0.0
1001
ACAD
1000
AcDbSavedByObjectVersion
1070
     0
  0
VISUALSTYLE
  5
49D2
102
{ACAD_REACTORS
330
49CD
102
}
330
49CD
100
AcDbVisualStyle
  2
Basic
 70
     7
 71
     1
 72
     0
 73
     1
 90
        0
 40
-0.6
 41
-30.0
 62
     5
 63
     7
 74
     0
 91
        4
 64
     7
 65
   257
 75
     1
175
     1
 42
1.0
 92
        8
 66
     7
 43
1.0
 76
     1
 77
     6
 78
     2
 67
     7
 79
     5
170
     0
171
     0
290
     0
174
     0
 93
        1
 44
0.0
173
     0
291
     1
 45
0.0
1001
ACAD
1000
AcDbSavedByObjectVersion
1070
     0
  0
VISUALSTYLE
  5
49D9
102
{ACAD_REACTORS
330
49CD
102
}
330
49CD
100
AcDbVisualStyle
  2
Brighten
 70
    12
 71
     2
 72
     2
 73
     0
 90
        0
 40
-0.6
 41
-30.0
 62
     5
 63
     7
 74
     1
 91
        4
 64
     7
 65
   257
 75
     1
175
     1
 42
1.0
 92
        8
 66
     7
 43
1.0
 76
     1
 77
     6
 78
     2
 67
     7
 79
     5
170
     0
171
     0
290
     0
174
     0
 93
        1
 44
50.0
173
     0
291
     1
 45
0.0
1001
ACAD
1000
AcDbSavedByObjectVersion
1070
     0
  0
VISUALSTYLE
  5
49DD
102
{ACAD_REACTORS
330
49CD
102
}
330
49CD
100
AcDbVisualStyle
  2
ColorChange
 70
    16
 71
     2
 72
     2
 73
     3
 90
        0
 40
-0.6
 41
-30.0
 62
     5
 63
     8
 74
     1
 91
        4
 64
     7
 65
   257
 75
     1
175
     1
 42
1.0
 92
        8
 66
     8
 43
1.0
 76
     1
 77
     6
 78
     2
 67
     7
 79
     5
170
     0
171
     0
290
     0
174
     0
 93
        1
 44
0.0
173
     0
291
     1
 45
0.0
1001
ACAD
1000
AcDbSavedByObjectVersion
1070
     0
  0
VISUALSTYLE
  5
49D6
102
{ACAD_REACTORS
330
49CD
102
}
330
49CD
100
AcDbVisualStyle
  2
Conceptual
 70
     9
 71
     3
 72
     2
 73
     0
 90
        0
 40
-0.6
 41
-30.0
 62
     5
 63
     7
 74
     2
 91
        2
 64
     7
 65
   257
 75
     1
175
     1
 42
40.0
 92
        8
 66
     7
 43
1.0
 76
     1
 77
     6
 78
     2
 67
     7
 79
     3
170
     0
171
     0
290
     0
174
     0
 93
        1
 44
0.0
173
     0
291
     0
 45
0.0
1001
ACAD
1000
AcDbSavedByObjectVersion
1070
     0
  0
VISUALSTYLE
  5
49D8
102
{ACAD_REACTORS
330
49CD
102
}
330
49CD
100
AcDbVisualStyle
  2
Dim
 70
    11
 71
     2
 72
     2
 73
     0
 90
        0
 40
-0.6
 41
-30.0
 62
     5
 63
     7
 74
     1
 91
        4
 64
     7
 65
   257
 75
     1
175
     1
 42
1.0
 92
        8
 66
     7
 43
1.0
 76
     1
 77
     6
 78
     2
 67
     7
 79
     5
170
     0
171
     0
290
     0
174
     0
 93
        1
 44
-50.0
173
     0
291
     1
 45
0.0
1001
ACAD
1000
AcDbSavedByObjectVersion
1070
     0
  0
VISUALSTYLE
  5
49DC
102
{ACAD_REACTORS
330
49CD
102
}
330
49CD
100
AcDbVisualStyle
  2
Facepattern
 70
    15
 71
     2
 72
     2
 73
     0
 90
        0
 40
-0.6
 41
-30.0
 62
     5
 63
     7
 74
     1
 91
        4
 64
     7
 65
   257
 75
     1
175
     1
 42
1.0
 92
        8
 66
     7
 43
1.0
 76
     1
 77
     6
 78
     2
 67
     7
 79
     5
170
     0
171
     0
290
     0
174
     0
 93
        1
 44
0.0
173
     0
291
     1
 45
0.0
1001
ACAD
1000
AcDbSavedByObjectVersion
1070
     0
  0
VISUALSTYLE
  5
49CE
102
{ACAD_REACTORS
330
49CD
102
}
330
49CD
100
AcDbVisualStyle
  2
Flat
 70
     0
 71
     2
 72
     1
 73
     1
 90
        2
 40
-0.6
 41
30.0
 62
     5
 63
     7
 74
     0
 91
        4
 64
     7
 65
   257
 75
     1
175
     1
 42
1.0
 92
        8
 66
     7
 43
1.0
 76
     1
 77
     6
 78
     2
 67
     7
 79
     5
170
     0
171
     0
290
     0
174
     0
 93
       13
 44
0.0
173
     0
291
     1
 45
0.0
1001
ACAD
1000
AcDbSavedByObjectVersion
1070
     0
  0
VISUALSTYLE
  5
49CF
102
{ACAD_REACTORS
330
49CD
102
}
330
49CD
100
AcDbVisualStyle
  2
FlatWithEdges
 70
     1
 71
     2
 72
     1
 73
     1
 90
        2
 40
-0.6
 41
30.0
 62
     5
 63
     7
 74
     1
 91
        4
 64
     7
 65
   257
 75
     1
175
     1
 42
1.0
 92
        0
 66
   257
 43
1.0
 76
     1
 77
     6
 78
     2
 67
     7
 79
     5
170
     0
171
     0
290
     0
174
     0
 93
       13
 44
0.0
173
     0
291
     1
 45
0.0
1001
ACAD
1000
AcDbSavedByObjectVersion
1070
     0
  0
VISUALSTYLE
  5
49D0
102
{ACAD_REACTORS
330
49CD
102
}
330
49CD
100
AcDbVisualStyle
  2
Gouraud
 70
     2
 71
     2
 72
     2
 73
     1
 90
        2
 40
-0.6
 41
30.0
 62
     5
 63
     7
 74
     0
 91
        4
 64
     7
 65
   257
 75
     1
175
     1
 42
1.0
 92
        0
 66
     7
 43
1.0
 76
     1
 77
     6
 78
     2
 67
     7
 79
     5
170
     0
171
     0
290
     0
174
     0
 93
       13
 44
0.0
173
     0
291
     1
 45
0.0
1001
ACAD
1000
AcDbSavedByObjectVersion
1070
     0
  0
VISUALSTYLE
  5
49D1
102
{ACAD_REACTORS
330
49CD
102
}
330
49CD
100
AcDbVisualStyle
  2
GouraudWithEdges
 70
     3
 71
     2
 72
     2
 73
     1
 90
        2
 40
-0.6
 41
30.0
 62
     5
 63
     7
 74
     1
 91
        4
 64
     7
 65
   257
 75
     1
175
     1
 42
1.0
 92
        0
 66
   257
 43
1.0
 76
     1
 77
     6
 78
     2
 67
     7
 79
     5
170
     0
171
     0
290
     0
174
     0
 93
       13
 44
0.0
173
     0
291
     1
 45
0.0
1001
ACAD
1000
AcDbSavedByObjectVersion
1070
     0
  0
VISUALSTYLE
  5
49DB
102
{ACAD_REACTORS
330
49CD
102
}
330
49CD
100
AcDbVisualStyle
  2
Linepattern
 70
    14
 71
     2
 72
     2
 73
     0
 90
        0
 40
-0.6
 41
-30.0
 62
     5
 63
     7
 74
     1
 91
        4
 64
     7
 65
   257
 75
     7
175
     7
 42
1.0
 92
        8
 66
     7
 43
1.0
 76
     1
 77
     6
 78
     2
 67
     7
 79
     5
170
     0
171
     0
290
     0
174
     0
 93
        1
 44
0.0
173
     0
291
     1
 45
0.0
1001
ACAD
1000
AcDbSavedByObjectVersion
1070
     0
  0
VISUALSTYLE
  5
49D7
102
{ACAD_REACTORS
330
49CD
102
}
330
49CD
100
AcDbVisualStyle
  2
Realistic
 70
     8
 71
     2
 72
     2
 73
     0
 90
        0
 40
-0.6
 41
-30.0
 62
     5
 63
     7
 74
     1
 91
        0
 64
     7
 65
   257
 75
     1
175
     1
 42
1.0
 92
        8
 66
     8
 43
1.0
 76
     1
 77
     6
 78
     2
 67
     7
 79
     5
170
     0
171
     0
290
     0
174
     0
 93
       13
 44
0.0
173
     0
291
     0
 45
0.0
1001
ACAD
1000
AcDbSavedByObjectVersion
1070
     0
  0
VISUALSTYLE
  5
49DA
102
{ACAD_REACTORS
330
49CD
102
}
330
49CD
100
AcDbVisualStyle
  2
Thicken
 70
    13
 71
     2
 72
     2
 73
     0
 90
        0
 40
-0.6
 41
-30.0
 62
     5
 63
     7
 74
     1
 91
        4
 64
     7
 65
   257
 75
     1
175
     1
 42
1.0
 92
       12
 66
     7
 43
1.0
 76
     1
 77
     6
 78
     2
 67
     7
 79
     5
170
     0
171
     0
290
     0
174
     0
 93
        1
 44
0.0
173
     0
291
     1
 45
0.0
1001
ACAD
1000
AcDbSavedByObjectVersion
1070
     0
  0
DICTIONARYVAR
  5
4A12
102
{ACAD_REACTORS
330
D2
102
}
330
D2
100
DictionaryVariables
280
     0
  1
1:1
  0
DICTIONARYVAR
  5
4A11
102
{ACAD_REACTORS
330
D2
102
}
330
D2
100
DictionaryVariables
280
     0
  1
STANDARD
  0
DICTIONARYVAR
  5
131
102
{ACAD_REACTORS
330
D2
102
}
330
D2
100
DictionaryVariables
280
     0
  1
STANDARD
  0
DICTIONARYVAR
  5
356
102
{ACAD_REACTORS
330
D2
102
}
330
D2
100
DictionaryVariables
280
     0
  1
1
  0
DICTIONARYVAR
  5
4A13
102
{ACAD_REACTORS
330
D2
102
}
330
D2
100
DictionaryVariables
280
     0
  1
0
  0
DICTIONARYVAR
  5
357
102
{ACAD_REACTORS
330
D2
102
}
330
D2
100
DictionaryVariables
280
     0
  1

  0
DICTIONARYVAR
  5
D3
102
{ACAD_REACTORS
330
D2
102
}
330
D2
100
DictionaryVariables
280
     0
  1
127
  0
DICTIONARY
  5
4A1A
330
8C
100
AcDbDictionary
280
     1
281
     1
  3
ACAD_XREC_ROUNDTRIP
360
4A1B
  0
DICTIONARY
  5
4A18
330
8B
100
AcDbDictionary
280
     1
281
     1
  3
ACAD_XREC_ROUNDTRIP
360
4A19
  0
DICTIONARY
  5
49BE
330
49BD
100
AcDbDictionary
280
     1
281
     1
  3
ACAD_XREC_ROUNDTRIP
360
4A1E
  3
BUMPTILE
360
49C0
  3
DIFFUSETILE
360
49BF
  3
OPACITYTILE
360
49C3
  3
REFLECTIONTILE
360
49C2
  3
REFRACTIONTILE
360
49C4
  3
SPECULARTILE
360
49C1
  0
DICTIONARY
  5
49B6
330
49B5
100
AcDbDictionary
280
     1
281
     1
  3
ACAD_XREC_ROUNDTRIP
360
4A1D
  3
BUMPTILE
360
49B8
  3
DIFFUSETILE
360
49B7
  3
OPACITYTILE
360
49BB
  3
REFLECTIONTILE
360
49BA
  3
REFRACTIONTILE
360
49BC
  3
SPECULARTILE
360
49B9
  0
DICTIONARY
  5
49C6
330
49C5
100
AcDbDictionary
280
     1
281
     1
  3
ACAD_XREC_ROUNDTRIP
360
4A1F
  3
BUMPTILE
360
49C8
  3
DIFFUSETILE
360
49C7
  3
OPACITYTILE
360
49CB
  3
REFLECTIONTILE
360
49CA
  3
REFRACTIONTILE
360
49CC
  3
SPECULARTILE
360
49C9
  0
DICTIONARY
  5
4A14
330
127
100
AcDbDictionary
280
     1
281
     1
  3
ACAD_ROUNDTRIP_2008_TABLESTYLE_CELLSTYLEMAP
360
4A15
  3
ACAD_XREC_ROUNDTRIP
360
4A1C
  0
XRECORD
  5
4A1B
102
{ACAD_REACTORS
330
4A1A
102
}
330
4A1A
100
AcDbXrecord
280
     1
102
SHADEPLOT
 70
     0
102
SHADEPLOTRESLEVEL
 70
     2
102
SHADEPLOTCUSTOMDPI
 70
   300
  0
XRECORD
  5
4A19
102
{ACAD_REACTORS
330
4A18
102
}
330
4A18
100
AcDbXrecord
280
     1
102
SHADEPLOT
 70
     0
102
SHADEPLOTRESLEVEL
 70
     2
102
SHADEPLOTCUSTOMDPI
 70
   300
  0
XRECORD
  5
4A1E
102
{ACAD_REACTORS
330
49BE
102
}
330
49BE
100
AcDbXrecord
280
     1
102
MATERIAL
148
0.0
149
0.0
149
0.0
 93
        0
 94
      127
282
     0
 72
     0
 77
     0
171
     0
175
     0
179
     0
273
     0
  0
XRECORD
  5
49C0
102
{ACAD_REACTORS
330
49BE
102
}
330
49BE
100
AcDbXrecord
280
     1
270
     1
271
     1
  0
XRECORD
  5
49BF
102
{ACAD_REACTORS
330
49BE
102
}
330
49BE
100
AcDbXrecord
280
     1
270
     1
271
     1
  0
XRECORD
  5
49C3
102
{ACAD_REACTORS
330
49BE
102
}
330
49BE
100
AcDbXrecord
280
     1
270
     1
271
     1
  0
XRECORD
  5
49C2
102
{ACAD_REACTORS
330
49BE
102
}
330
49BE
100
AcDbXrecord
280
     1
270
     1
271
     1
  0
XRECORD
  5
49C4
102
{ACAD_REACTORS
330
49BE
102
}
330
49BE
100
AcDbXrecord
280
     1
270
     1
271
     1
  0
XRECORD
  5
49C1
102
{ACAD_REACTORS
330
49BE
102
}
330
49BE
100
AcDbXrecord
280
     1
270
     1
271
     1
  0
XRECORD
  5
4A1D
102
{ACAD_REACTORS
330
49B6
102
}
330
49B6
100
AcDbXrecord
280
     1
102
MATERIAL
148
0.0
149
0.0
149
0.0
 93
        0
 94
      127
282
     0
 72
     0
 77
     0
171
     0
175
     0
179
     0
273
     0
  0
XRECORD
  5
49B8
102
{ACAD_REACTORS
330
49B6
102
}
330
49B6
100
AcDbXrecord
280
     1
270
     1
271
     1
  0
XRECORD
  5
49B7
102
{ACAD_REACTORS
330
49B6
102
}
330
49B6
100
AcDbXrecord
280
     1
270
     1
271
     1
  0
XRECORD
  5
49BB
102
{ACAD_REACTORS
330
49B6
102
}
330
49B6
100
AcDbXrecord
280
     1
270
     1
271
     1
  0
XRECORD
  5
49BA
102
{ACAD_REACTORS
330
49B6
102
}
330
49B6
100
AcDbXrecord
280
     1
270
     1
271
     1
  0
XRECORD
  5
49BC
102
{ACAD_REACTORS
330
49B6
102
}
330
49B6
100
AcDbXrecord
280
     1
270
     1
271
     1
  0
XRECORD
  5
49B9
102
{ACAD_REACTORS
330
49B6
102
}
330
49B6
100
AcDbXrecord
280
     1
270
     1
271
     1
  0
XRECORD
  5
4A1F
102
{ACAD_REACTORS
330
49C6
102
}
330
49C6
100
AcDbXrecord
280
     1
102
MATERIAL
148
0.0
149
0.0
149
0.0
 93
        0
 94
      127
282
     0
 72
     0
 77
     0
171
     0
175
     0
179
     0
273
     0
  0
XRECORD
  5
49C8
102
{ACAD_REACTORS
330
49C6
102
}
330
49C6
100
AcDbXrecord
280
     1
270
     1
271
     1
  0
XRECORD
  5
49C7
102
{ACAD_REACTORS
330
49C6
102
}
330
49C6
100
AcDbXrecord
280
     1
270
     1
271
     1
  0
XRECORD
  5
49CB
102
{ACAD_REACTORS
330
49C6
102
}
330
49C6
100
AcDbXrecord
280
     1
270
     1
271
     1
  0
XRECORD
  5
49CA
102
{ACAD_REACTORS
330
49C6
102
}
330
49C6
100
AcDbXrecord
280
     1
270
     1
271
     1
  0
XRECORD
  5
49CC
102
{ACAD_REACTORS
330
49C6
102
}
330
49C6
100
AcDbXrecord
280
     1
270
     1
271
     1
  0
XRECORD
  5
49C9
102
{ACAD_REACTORS
330
49C6
102
}
330
49C6
100
AcDbXrecord
280
     1
270
     1
271
     1
  0
CELLSTYLEMAP
  5
4A15
102
{ACAD_REACTORS
330
4A14
102
}
330
4A14
100
AcDbCellStyleMap
 90
        3
300
CELLSTYLE
  1
TABLEFORMAT_BEGIN
 90
        5
170
     1
 91
        0
 92
    32768
 62
   257
 93
        1
300
CONTENTFORMAT
  1
CONTENTFORMAT_BEGIN
 90
        0
 91
        0
 92
        4
 93
        0
300

 40
0.0
140
1.0
 94
        5
 62
     0
340
11
144
0.25
309
CONTENTFORMAT_END
171
     0
 94
        6
 95
        1
302
GRIDFORMAT
  1
GRIDFORMAT_BEGIN
 90
        0
 91
        1
 62
     0
 92
       -2
340
0
 93
        0
 40
0.045
309
GRIDFORMAT_END
 95
        2
302
GRIDFORMAT
  1
GRIDFORMAT_BEGIN
 90
        0
 91
        1
 62
     0
 92
       -2
340
0
 93
        0
 40
0.045
309
GRIDFORMAT_END
 95
        4
302
GRIDFORMAT
  1
GRIDFORMAT_BEGIN
 90
        0
 91
        1
 62
     0
 92
       -2
340
0
 93
        0
 40
0.045
309
GRIDFORMAT_END
 95
        8
302
GRIDFORMAT
  1
GRIDFORMAT_BEGIN
 90
        0
 91
        1
 62
     0
 92
       -2
340
0
 93
        0
 40
0.045
309
GRIDFORMAT_END
 95
       16
302
GRIDFORMAT
  1
GRIDFORMAT_BEGIN
 90
        0
 91
        1
 62
     0
 92
       -2
340
0
 93
        0
 40
0.045
309
GRIDFORMAT_END
 95
       32
302
GRIDFORMAT
  1
GRIDFORMAT_BEGIN
 90
        0
 91
        1
 62
     0
 92
       -2
340
0
 93
        0
 40
0.045
309
GRIDFORMAT_END
309
TABLEFORMAT_END
  1
CELLSTYLE_BEGIN
 90
        1
 91
        1
300
_TITLE
309
CELLSTYLE_END
300
CELLSTYLE
  1
TABLEFORMAT_BEGIN
 90
        5
170
     1
 91
        0
 92
        0
 62
   257
 93
        1
300
CONTENTFORMAT
  1
CONTENTFORMAT_BEGIN
 90
        0
 91
        0
 92
        4
 93
        0
300

 40
0.0
140
1.0
 94
        5
 62
     0
340
11
144
0.18
309
CONTENTFORMAT_END
171
     0
 94
        6
 95
        1
302
GRIDFORMAT
  1
GRIDFORMAT_BEGIN
 90
        0
 91
        1
 62
     0
 92
       -2
340
0
 93
        0
 40
0.045
309
GRIDFORMAT_END
 95
        2
302
GRIDFORMAT
  1
GRIDFORMAT_BEGIN
 90
        0
 91
        1
 62
     0
 92
       -2
340
0
 93
        0
 40
0.045
309
GRIDFORMAT_END
 95
        4
302
GRIDFORMAT
  1
GRIDFORMAT_BEGIN
 90
        0
 91
        1
 62
     0
 92
       -2
340
0
 93
        0
 40
0.045
309
GRIDFORMAT_END
 95
        8
302
GRIDFORMAT
  1
GRIDFORMAT_BEGIN
 90
        0
 91
        1
 62
     0
 92
       -2
340
0
 93
        0
 40
0.045
309
GRIDFORMAT_END
 95
       16
302
GRIDFORMAT
  1
GRIDFORMAT_BEGIN
 90
        0
 91
        1
 62
     0
 92
       -2
340
0
 93
        0
 40
0.045
309
GRIDFORMAT_END
 95
       32
302
GRIDFORMAT
  1
GRIDFORMAT_BEGIN
 90
        0
 91
        1
 62
     0
 92
       -2
340
0
 93
        0
 40
0.045
309
GRIDFORMAT_END
309
TABLEFORMAT_END
  1
CELLSTYLE_BEGIN
 90
        2
 91
        1
300
_HEADER
309
CELLSTYLE_END
300
CELLSTYLE
  1
TABLEFORMAT_BEGIN
 90
        5
170
     1
 91
        0
 92
        0
 62
   257
 93
        1
300
CONTENTFORMAT
  1
CONTENTFORMAT_BEGIN
 90
        0
 91
        0
 92
        4
 93
        0
300

 40
0.0
140
1.0
 94
        2
 62
     0
340
11
144
0.18
309
CONTENTFORMAT_END
171
     0
 94
        6
 95
        1
302
GRIDFORMAT
  1
GRIDFORMAT_BEGIN
 90
        0
 91
        1
 62
     0
 92
       -2
340
0
 93
        0
 40
0.045
309
GRIDFORMAT_END
 95
        2
302
GRIDFORMAT
  1
GRIDFORMAT_BEGIN
 90
        0
 91
        1
 62
     0
 92
       -2
340
0
 93
        0
 40
0.045
309
GRIDFORMAT_END
 95
        4
302
GRIDFORMAT
  1
GRIDFORMAT_BEGIN
 90
        0
 91
        1
 62
     0
 92
       -2
340
0
 93
        0
 40
0.045
309
GRIDFORMAT_END
 95
        8
302
GRIDFORMAT
  1
GRIDFORMAT_BEGIN
 90
        0
 91
        1
 62
     0
 92
       -2
340
0
 93
        0
 40
0.045
309
GRIDFORMAT_END
 95
       16
302
GRIDFORMAT
  1
GRIDFORMAT_BEGIN
 90
        0
 91
        1
 62
     0
 92
       -2
340
0
 93
        0
 40
0.045
309
GRIDFORMAT_END
 95
       32
302
GRIDFORMAT
  1
GRIDFORMAT_BEGIN
 90
        0
 91
        1
 62
     0
 92
       -2
340
0
 93
        0
 40
0.045
309
GRIDFORMAT_END
309
TABLEFORMAT_END
  1
CELLSTYLE_BEGIN
 90
        3
 91
        2
300
_DATA
309
CELLSTYLE_END
  0
XRECORD
  5
4A1C
102
{ACAD_REACTORS
330
4A14
102
}
330
4A14
100
AcDbXrecord
280
     1
102
ACAD_ROUNDTRIP_PRE2007_TABLESTYLE
 90
        4
 91
        0
  1

 92
        4
 93
        0
  2

 94
        4
 95
        0
  3

  0
ENDSEC
  0
EOF
